» » »

Allison - Me Cambio Tabs

Artists:  A B C D E F G H I J K L M N O P Q R S T U V W X Y Z # 

Me Cambio Tabs

(ver. 1) Click to play this song!
Allison
 Rating:
4/5 (5 votes)

 Me Cambio lessons Tabs too difficult? Try these video lessons and learn fast
 
                Difficulty: Novice
Tune: Standard



Tab Legend:
h = hammer on
/// = Tremolo picking
(#)/ = slide up neck
(#)\ = slide down neck
PM = Palm Mute
x = mute string


Okay well this is my first tab.
I edited it b/c I thought Chorus was off.
Well here we go....





Drumming intro

Then This:

[INTRO]/[ENTRADA]
GTR 1 and GTR 2
e---------------------------------------------------------------------|
B---------------------------------------------------------------------|
G---------------------------------------------------------------------|
D---------------------4-4-4-4-4-4-4-4-5-5-5-5-5-5-5-5-9-9-9-9-7-7-7-7-|   )X2
A-----5-5-5-5-5-5-5-5-2-2-2-2-2-2-2-2-3-3-3-3-3-3-3-3-7-7-7-7-5-5-5-5-|
E-----3-3-3-3-3-3-3-3-------------------------------------------------|

---------------------------------------------------------------------------

GTR 1
e------------------------------------------------------------------------|
B------------------------------------------------------------------------|
G--------------4-----4--5-----5--9-----7-----5~~~~~~~~~~~~~~~~~~---------|
D-----5-----5--4-----4--5-----5--9-----7-----5~~~~~~~~~~~~~~~~~~---------|
A-----5-----5--2-----2--3-----3--7-----5-----3~~~~~~~~~~~~~~~~~~---------|
E-----3-----3------------------------------------------------------------|

GTR 2
e--------------------------------------------------------------------------|
B--------------------------------------------------------------------------|
G--------------------------------------------------------------------------|
D--------------------------------------------------------------------------|
A-------------------2222222222222222-3333333333333333-77777777-55555555----|
E--3333333333333333--------------------------------------------------------|


[1st VERSE]/[PRIMERO VERSO]
GTR 1 >X2
Pues me cambio todo por un auto.......
e------------------------------------------------------------------------|
B------------------------------------------------------------------------|
G-------------4-------5-------9------------------------------------------|
D-----5-------4-------5-------9------------------------------------------|
A-----5-------2-------3-------7------------------------------------------|
E-----3------------------------------------------------------------------|
 

GTR 2 >X2
e--------------------------------------------------------------------------|
B--------------------------------------------------------------------------|
G--------------------------------------------------------------------------|
D--------------------------------------------------------------------------|
A--------------------3333333333333333-7777777777777777-5555555555555555----|
E--3333333333333333--------------------------------------------------------|

[CHORUS 1}/[CORO 1]
GTR 1 > X2
oooh  woah oh.  Me camnio ooh oh
e-----------------------------------------------------------|
B-----------------------------------------------------------|
G--12-12-12-12-11-11-7-7--]-----12-12-12-12-14-14-16-16-----|
D-------------------------]-X3------------------------------|
A--10-10-10-10-9--9--5-5--]-----10-10-10-10-12-12-14-14-----|
E-----------------------------------------------------------|

GTR 2 > X2
e---------------------------------------------------------------------|
B---------------------------------------------------------------------|
G---------------------------------------------------------------------|
D---------------------5-5-5-5-5-5-5-5-9-9-9-9-9-9-9-9-7-7-7-7-7-7-7-7-|  
A-----5-5-5-5-5-5-5-5-3-3-3-3-3-3-3-3-7-7-7-7-7-7-7-7-5-5-5-5-5-5-5-5-|
E-----3-3-3-3-3-3-3-3-------------------------------------------------|


[POST CHORUS 1]/[DESPUES DEL CORO 1]
GTR 1
e------------------------------------------------------------------------|
B------------------------------------------------------------------------|
G------------------------------------------------------------------------|
D-4h5-5(x12)---4h5-5(x12)---4h5(x12)---5--4--0----/5-------------5--4--0-|
A------------------------------------------------------------------------|
E -----------------------------------------------------0(x16)------------|
                                                       (^PM)

GTR 2
e---------------------------------------------------------------------|
B---------------------------------------------------------------------|
G---------------------------------------------------------------------|
D---------------------5-5-5-5-5-5-5-5-9-9-9-9-9-9-9-9-7-7-------------|  
A-----5-5-5-5-5-5-5-5-3-3-3-3-3-3-3-3-7-7-7-7-7-7-7-7-5-5-------------|
E-----3-3-3-3-3-3-3-3-------------------------------------------------|


[2nd VERSE]/{SEGUNDO VERSO]
Ayer la vi. Estaba sobre su auto.....

GTR1 or GTR2 (you time it.)
e----------------------------|
B----------------------------|
G----------------------------| 
D-------------- x/-----------|
A----Pick Slide x/-----------|
E-------------- x/-----------|


[CHORUS 2]/[CORO 2}

GTR 1 > X2
e-----------------------------------------------------------|
B-----------------------------------------------------------|
G--12-12-12-12-11-11-7-7--]-----12-12-12-12-14-14-16-16-----|
D-------------------------]-X3------------------------------|
A--10-10-10-10-9--9--5-5--]-----10-10-10-10-12-12-14-14-----|
E-----------------------------------------------------------|

GTR 2 > X2
e---------------------------------------------------------------------|
B---------------------------------------------------------------------|
G---------------------------------------------------------------------|
D---------------------5-5-5-5-5-5-5-5-9-9-9-9-9-9-9-9-7-7-7-7-7-7-7-7-|  
A-----5-5-5-5-5-5-5-5-3-3-3-3-3-3-3-3-7-7-7-7-7-7-7-7-5-5-5-5-5-5-5-5-|
E-----3-3-3-3-3-3-3-3-------------------------------------------------|


[POST CHORUS 2]/[DESPUES DEL CORO 2]
GTR 1
e---------------------------------------------------------------------|
B---------------------------------------------------------------------|
G---------------------------------------------------------------------|
D-----4h5-5(x12)---4h5-5(x12)---4h5-5(x12)---5--4--0------------------|
A---------------------------------------------------------------------|
E --------------------------------------------------------------------|
                                                  

GTR 2
e------------------------------------|
B------------------------------------|
G-------5------7-----9-----5---------|
D-------5------7-----9-----5---------|  
A-------3------5-----7-----3---------|
E------------------------------------|
-


[Bridge] w/o dist.
GTR 2
e-----------------------------------------------------------------------|
B-----------------------------------------------------------------------|
G----------------------------------------4------4------2-0-----2-0------|
D--------5-----5----------5-----5------2---4--2---4--0-------0----------|  X4
A------5---------5----3-5-----3---5-------------------------------------|
E----3-------3----------------------------------------------------------|
                  (^ Everything above should ring ^)

GTR 1 (after GTR 2 plays for second time)
  Nunca me amo.  Solo me uso.  Era interese mas no era amor.
e-----------------------------------------------------------------|
B-----8--7-------8--7-------8--7--0-----8--7--8/------------------|
G-----------7----------5------------------------------------------| X2
D-----------------------------------------------------------------|
A-----------------------------------------------------------------|
E-----------------------------------------------------------------|


[ENTERING CHORUS 3]/[ENTRANDO CORO]
GTR 1
e-----------------|
B-----------------|
G-----------------|
D-----------------|
A-x-x-x-x-x-x-x-x-|
E-x-x-x-x-x-x-x-x-|


[CHROUS 3]/[CORO 3]
GTR 1 > X4
e-----------------------------------------------------------|
B-----------------------------------------------------------|
G--12-12-12-12-11-11-7-7--]-----12-12-12-12-14-14-16-16-----|
D-------------------------]-X3------------------------------|
A--10-10-10-10-9--9--5-5--]-----10-10-10-10-12-12-14-14-----|
E-----------------------------------------------------------|

GTR 2 > X4
e---------------------------------------------------------------------|
B---------------------------------------------------------------------|
G---------------------------------------------------------------------|
D---------------------5-5-5-5-5-5-5-5-9-9-9-9-9-9-9-9-7-7-7-7-7-7-7-7-|  
A-----5-5-5-5-5-5-5-5-3-3-3-3-3-3-3-3-7-7-7-7-7-7-7-7-5-5-5-5-5-5-5-5-|
E-----3-3-3-3-3-3-3-3-------------------------------------------------|


*Ourto*
GTR 1 (strummed up and down fast)
e-------------------------------------|
B-------------------------------------|
G-------------------------------------|
D--------444444----555555---777777----|
A-------------------------------------|
E-------------------------------------|

GTR 2
e-----------------------------|
B-----------------------------|
G----4-4-------5-5-------7-7--|
D----4-4-------5-5-------7-5--|  
A----2-2-------3-3-------5-5--|
E-----------------------------|

(then hold this till song fades out)
Both GTR1 ahd GTR2
e-----------------|
B-----------------|
G-----------------|
D---5~~~~~--------|
A---5~~~~~--------|
E---3~~~~~--------|



Hope it's good
            
Submit corrections


        Me Cambio lessons Hard to play? Try these video lessons and learn fast Me Cambio lessons
        
↑ Back to top | Tablatures and chords for acoustic guitar and electric guitar, ukulele, drums are parodies/interpretations of the original songs. You may use it for private study, scholarship, research or language learning purposes only