» » »

Allison - El Juego Tabs

Artists:  A B C D E F G H I J K L M N O P Q R S T U V W X Y Z # 

El Juego Tabs

(ver. 1) Click to play this song!
Allison
 Rating:
4.4/5 (5 votes)

 El Juego lessons Tabs too difficult? Try these video lessons and learn fast
 
                [Intro]
E|----------|----------|----------|----------|----------|-------|-----------------|
B|----------|----------|----------|----------|----------|-------|-----------------|
G|----------|----------|--9--9--9-|----------|----------|-------|-----------------|
D|--9--9--9-|-10-10-10-|-10-10-10-|--9--9--9-|-10-10-10-|-5-5-5-|-7-7-7-7-7-7-7-7-|
A|-10-10-10-|-10-10-10-|----------|-10-10-10-|-10-10-10-|-7-7-7-|-8-8-8-8-8-8-8-8-|
E|----------|----------|----------|----------|----------|-------|-----------------|

E|-------|----------|----------|----------|----------|----------|-------|-------------------------|
B|-------|----------|----------|----------|----------|----------|-------|-------------------------|
G|-------|----------|----------|--9--9--9-|----------|----------|-------|-------------------------|
D|-7-7-7-|--9--9--9-|-10-10-10-|-10-10-10-|--9--9--9-|-10-10-10-|-5-5-5-|--9--9--9--9--9--9--9--9-|
A|-8-8-8-|-10-10-10-|-10-10-10-|----------|-10-10-10-|-10-10-10-|-7-7-7-|-10-10-10-10-10-10-10-10-|
E|-------|----------|----------|----------|----------|----------|-------|-------------------------|

[Verse]
   No trates de esconderlo siempre ha existido algo entre tú y yo
E|----------|----------|----------|----------|----------|-------|-----------------|
B|----------|----------|----------|----------|----------|-------|-----------------|
G|----------|----------|--9--9--9-|----------|----------|-------|-----------------|
D|--9--9--9-|-10-10-10-|-10-10-10-|--9--9--9-|-10-10-10-|-5-5-5-|-7-7-7-7-7-7-7-7-|
A|-10-10-10-|-10-10-10-|----------|-10-10-10-|-10-10-10-|-7-7-7-|-8-8-8-8-8-8-8-8-|
E|----------|----------|----------|----------|----------|-------|-----------------|

E|-------------|-------|-------|-------|-------|-----------------|
B|-------------|-------|-------|-------|-------|-----------------|
G|-------------|-------|-------|-------|-------|-----------------|
D|-------------|-5-5-5-|-------|-------|-------|-----------------|
A|-5-5-5-7-7-7-|-3-3-3-|-5-5-5-|-7-7-7-|-2-2-2-|-3-3-3-3-3-3-3-3-|
E|-3-3-3-5-5-5-|-------|-3-3-3-|-5-5-5-|-0-0-0-|-1-1-1-1-1-1-1-1-|


   Dejémonos de juegos te espero donde nadie pueda vernos 
E|-------|----------|----------|----------|----------|----------|-------|-------------------------|
B|-------|----------|----------|----------|----------|----------|-------|-------------------------|
G|-------|----------|----------|--9--9--9-|----------|----------|-------|-------------------------|
D|-7-7-7-|--9--9--9-|-10-10-10-|-10-10-10-|--9--9--9-|-10-10-10-|-5-5-5-|--9--9--9--9--9--9--9--9-|
A|-8-8-8-|-10-10-10-|-10-10-10-|----------|-10-10-10-|-10-10-10-|-7-7-7-|-10-10-10-10-10-10-10-10-|
E|-------|----------|----------|----------|----------|----------|-------|-------------------------|

E|-------|-------|-------|-------|-------|-------|-------|-----------------|
B|-------|-------|-------|-------|-------|-------|-------|-----------------|
G|-------|-------|-------|-------|-------|-------|-------|-----------------|
D|-------|-------|-------|-5-5-5-|-------|-------|-------|-----------------|
A|-3-3-3-|-5-5-5-|-7-7-7-|-3-3-3-|-5-5-5-|-7-7-7-|-2-2-2-|-5-5-5-5-5-5-5-5-|
E|-1-1-1-|-3-3-3-|-5-5-5-|-------|-3-3-3-|-5-5-5-|-0-0-0-|-3-3-3-3-3-3-3-3-|

 
   Puedo sentir tu miedo sé que el peligro siempre te gustó 
E|----------|----------|----------|----------|----------|-------|-----------------|
B|----------|----------|----------|----------|----------|-------|-----------------|
G|----------|----------|--9--9--9-|----------|----------|-------|-----------------|
D|--9--9--9-|-10-10-10-|-10-10-10-|--9--9--9-|-10-10-10-|-5-5-5-|-7-7-7-7-7-7-7-7-|
A|-10-10-10-|-10-10-10-|----------|-10-10-10-|-10-10-10-|-7-7-7-|-8-8-8-8-8-8-8-8-|
E|----------|----------|----------|----------|----------|-------|-----------------|

E|-------|-------|-------|-------|-------|-------|-----------------|
B|-------|-------|-------|-------|-------|-------|-----------------|
G|-------|-------|-------|-------|-------|-------|-----------------|
D|-------|-------|-5-5-5-|-------|-------|-------|-----------------|
A|-5-5-5-|-7-7-7-|-3-3-3-|-5-5-5-|-7-7-7-|-2-2-2-|-3-3-3-3-3-3-3-3-|
E|-3-3-3-|-5-5-5-|-------|-3-3-3-|-5-5-5-|-0-0-0-|-1-1-1-1-1-1-1-1-|

   Ya no perdamos tiempo ahora o nunca este es el momento 
E|-------|----------|----------|----------|----------|----------|-------|-------------------------|
B|-------|----------|----------|----------|----------|----------|-------|-------------------------|
G|-------|----------|----------|--9--9--9-|----------|----------|-------|-------------------------|
D|-7-7-7-|--9--9--9-|-10-10-10-|-10-10-10-|--9--9--9-|-10-10-10-|-5-5-5-|--9--9--9--9--9--9--9--9-|
A|-8-8-8-|-10-10-10-|-10-10-10-|----------|-10-10-10-|-10-10-10-|-7-7-7-|-10-10-10-10-10-10-10-10-|
E|-------|----------|----------|----------|----------|----------|-------|-------------------------|

E|-------|-------|-------|-------|-------|-------|-------|-----------------|
B|-------|-------|-------|-------|-------|-------|-------|-----------------|
G|-------|-------|-------|-------|-------|-------|-------|-----------------|
D|-------|-------|-------|-5-5-5-|-------|-------|-------|-----------------|
A|-3-3-3-|-5-5-5-|-7-7-7-|-3-3-3-|-5-5-5-|-7-7-7-|-2-2-2-|-5-5-5-5-5-5-5-5-|
E|-1-1-1-|-3-3-3-|-5-5-5-|-------|-3-3-3-|-5-5-5-|-0-0-0-|-3-3-3-3-3-3-3-3-|

[Pre-Chorus]
Siempre tratas de huir y si no voy, vuelves aquí
E|------------------------------------------|
B|------------------------------------------|
G|----------5-5------------------5-5--------|
D|---7-7----5-5----3-3----7-7----5-5----5-5-|
A|---7-7----3-3----3-3----7-7----3-3----5-5-|
E|---5-5-----------1-1----5-5-----------3-3-|

Te gusta escapar de mi para que vaya tras de ti
E|------------------------------------------|
B|------------------------------------------|
G|----------5-5------------------5-5--------|
D|---7-7----5-5----3-3----7-7----5-5----5-5-|
A|---7-7----3-3----3-3----7-7----3-3----5-5-|
E|---5-5-----------1-1----5-5-----------3-3-|

[Chorus]
No tengas miedo de sentir que tu cuerpo se acerca más a mí
E|---------|--|-----------|---------|---|-----------|
B|---------|--|-----------|---------|---|-----------|
G|---------|--|-----------|---------|---|-----------|
D|-3-3-3-3-|7-|-5-5-5-5-5-|-7-7-7-7-|-2-|-3-3-3-3-3-|
A|-3-3-3-3-|7-|-5-5-5-5-5-|-7-7-7-7-|-2-|-3-3-3-3-3-|
E|-1-1-1-1-|5-|-3-3-3-3-3-|-5-5-5-5-|-0-|-1-1-1-1-1-|

No tienes que fingir solo dilo y larguémonos de aquí
E|---------|---|-----------|---------|--|----------|
B|---------|---|-----------|---------|--|----------|
G|---------|---|-----------|---------|--|-5-5-5-5--|
D|-3-3-3-3-|-7-|-5-5-5-5-5-|-7-7-7-7-|5-|-5-5-5-5--|
A|-3-3-3-3-|-7-|-5-5-5-5-5-|-7-7-7-7-|5-|-3-3-3-3--|
E|-1-1-1-1-|-5-|-3-3-3-3-3-|-5-5-5-5-|3-|----------|


Oh! Oh! Oh! No tengas miedo de sentir
E|---------|---|-----------|---------|---|-----------|
B|---------|---|-----------|---------|---|-----------|
G|---------|---|-----------|---------|---|-----------|
D|-3-3-3-3-|-7-|-5-5-5-5-5-|-7-7-7-7-|-2-|-3-3-3-3-3-|
A|-3-3-3-3-|-7-|-5-5-5-5-5-|-7-7-7-7-|-2-|-3-3-3-3-3-|
E|-1-1-1-1-|-5-|-3-3-3-3-3-|-5-5-5-5-|-0-|-1-1-1-1-1-|

Oh! Oh! Oh! Solo dilo y larguémonos de aquí
E|---------|---|-----------|---------|---|---------|
B|---------|---|-----------|---------|---|---------|
G|---------|---|-----------|---------|---|-5-5-5-5-|
D|-3-3-3-3-|-7-|-5-5-5-5-5-|-7-7-7-7-|-5-|-5-5-5-5-|
A|-3-3-3-3-|-7-|-5-5-5-5-5-|-7-7-7-7-|-5-|-3-3-3-3-|
E|-1-1-1-1-|-5-|-3-3-3-3-3-|-5-5-5-5-|-3-|---------|

Acompañamiento del coro
E|-------------------------|-------------------------|-------------------------------------------------|
B|-13-13-13-13-13-13-13-13-|-12-12-12-12-12-12-12-12-|-13-13-13-13-13-13-13-13-13-13-13-13-13-13-13-13-|
G|-12-12-12-12-12-12-12-12-|-12-12-12-12-12-12-12-12-|-12-12-12-12-12-12-12-12-12-12-12-12-12-12-12-12-| X4
D|-10-10-10-10-10-10-10-10-|-10-10-10-10-10-10-10-10-|-10-10-10-10-10-10-10-10-10-10-10-10-10-10-10-10-|
A|-------------------------|-------------------------|-------------------------------------------------|
E|-------------------------|-------------------------|-------------------------------------------------|

[Verse]
Voy a robar tu cuerpo no regresarte hasta que salga el sol 
E|----------|----------|----------|----------|----------|-------|-----------------|
B|----------|----------|----------|----------|----------|-------|-----------------|
G|----------|----------|--9--9--9-|----------|----------|-------|-----------------|
D|--9--9--9-|-10-10-10-|-10-10-10-|--9--9--9-|-10-10-10-|-5-5-5-|-7-7-7-7-7-7-7-7-|
A|-10-10-10-|-10-10-10-|----------|-10-10-10-|-10-10-10-|-7-7-7-|-8-8-8-8-8-8-8-8-|
E|----------|----------|----------|----------|----------|-------|-----------------|

E|-------------|-------|-------|-------|-------|-----------------|
B|-------------|-------|-------|-------|-------|-----------------|
G|-------------|-------|-------|-------|-------|-----------------|
D|-------------|-5-5-5-|-------|-------|-------|-----------------|
A|-5-5-5-7-7-7-|-3-3-3-|-5-5-5-|-7-7-7-|-2-2-2-|-3-3-3-3-3-3-3-3-|
E|-3-3-3-5-5-5-|-------|-3-3-3-|-5-5-5-|-0-0-0-|-1-1-1-1-1-1-1-1-|


Mirarnos al espejo atar mi cuello al largo de tu pelo
E|-------|----------|----------|----------|----------|----------|-------|-------------------------|
B|-------|----------|----------|----------|----------|----------|-------|-------------------------|
G|-------|----------|----------|--9--9--9-|----------|----------|-------|-------------------------|
D|-7-7-7-|--9--9--9-|-10-10-10-|-10-10-10-|--9--9--9-|-10-10-10-|-5-5-5-|--9--9--9--9--9--9--9--9-|
A|-8-8-8-|-10-10-10-|-10-10-10-|----------|-10-10-10-|-10-10-10-|-7-7-7-|-10-10-10-10-10-10-10-10-|
E|-------|----------|----------|----------|----------|----------|-------|-------------------------|

E|-------|-------|-------|-------|-------|-------|-------|-----------------|
B|-------|-------|-------|-------|-------|-------|-------|-----------------|
G|-------|-------|-------|-------|-------|-------|-------|-----------------|
D|-------|-------|-------|-5-5-5-|-------|-------|-------|-----------------|
A|-3-3-3-|-5-5-5-|-7-7-7-|-3-3-3-|-5-5-5-|-7-7-7-|-2-2-2-|-5-5-5-5-5-5-5-5-|
E|-1-1-1-|-3-3-3-|-5-5-5-|-------|-3-3-3-|-5-5-5-|-0-0-0-|-3-3-3-3-3-3-3-3-|

[Pre-Chorus]
Siempre tratas de huir y si no voy, vuelves aquí
E|------------------------------------------|
B|------------------------------------------|
G|----------5-5------------------5-5--------|
D|---7-7----5-5----3-3----7-7----5-5----5-5-|
A|---7-7----3-3----3-3----7-7----3-3----5-5-|
E|---5-5-----------1-1----5-5-----------3-3-|

Te gusta escapar de mi para que vaya tras de ti
E|------------------------------------------|
B|------------------------------------------|
G|----------5-5------------------5-5--------|
D|---7-7----5-5----3-3----7-7----5-5----5-5-|
A|---7-7----3-3----3-3----7-7----3-3----5-5-|
E|---5-5-----------1-1----5-5-----------3-3-|

[Chorus]
No tengas miedo de sentir que tu cuerpo se acerca más a mí
E|---------|--|-----------|---------|---|-----------|
B|---------|--|-----------|---------|---|-----------|
G|---------|--|-----------|---------|---|-----------|
D|-3-3-3-3-|7-|-5-5-5-5-5-|-7-7-7-7-|-2-|-3-3-3-3-3-|
A|-3-3-3-3-|7-|-5-5-5-5-5-|-7-7-7-7-|-2-|-3-3-3-3-3-|
E|-1-1-1-1-|5-|-3-3-3-3-3-|-5-5-5-5-|-0-|-1-1-1-1-1-|

No tienes que fingir solo dilo y larguémonos de aquí
E|---------|---|-----------|---------|--|----------|
B|---------|---|-----------|---------|--|----------|
G|---------|---|-----------|---------|--|-5-5-5-5--|
D|-3-3-3-3-|-7-|-5-5-5-5-5-|-7-7-7-7-|5-|-5-5-5-5--|
A|-3-3-3-3-|-7-|-5-5-5-5-5-|-7-7-7-7-|5-|-3-3-3-3--|
E|-1-1-1-1-|-5-|-3-3-3-3-3-|-5-5-5-5-|3-|----------|


Oh! Oh! Oh! No tengas miedo de sentir
E|---------|---|-----------|---------|---|-----------|
B|---------|---|-----------|---------|---|-----------|
G|---------|---|-----------|---------|---|-----------|
D|-3-3-3-3-|-7-|-5-5-5-5-5-|-7-7-7-7-|-2-|-3-3-3-3-3-|
A|-3-3-3-3-|-7-|-5-5-5-5-5-|-7-7-7-7-|-2-|-3-3-3-3-3-|
E|-1-1-1-1-|-5-|-3-3-3-3-3-|-5-5-5-5-|-0-|-1-1-1-1-1-|

Oh! Oh! Oh! Solo dilo y larguémonos de aquí
E|---------|---|-----------|---------|---|---------|
B|---------|---|-----------|---------|---|---------|
G|---------|---|-----------|---------|---|-5-5-5-5-|
D|-3-3-3-3-|-7-|-5-5-5-5-5-|-7-7-7-7-|-5-|-5-5-5-5-|
A|-3-3-3-3-|-7-|-5-5-5-5-5-|-7-7-7-7-|-5-|-3-3-3-3-|
E|-1-1-1-1-|-5-|-3-3-3-3-3-|-5-5-5-5-|-3-|---------|

Acompañamiento del coro
E|-------------------------|-------------------------|-------------------------------------------------|
B|-13-13-13-13-13-13-13-13-|-12-12-12-12-12-12-12-12-|-13-13-13-13-13-13-13-13-13-13-13-13-13-13-13-13-|
G|-12-12-12-12-12-12-12-12-|-12-12-12-12-12-12-12-12-|-12-12-12-12-12-12-12-12-12-12-12-12-12-12-12-12-|
D|-10-10-10-10-10-10-10-10-|-10-10-10-10-10-10-10-10-|-10-10-10-10-10-10-10-10-10-10-10-10-10-10-10-10-| X4
A|-------------------------|-------------------------|-------------------------------------------------|
E|-------------------------|-------------------------|-------------------------------------------------|

[Bridge]
E|-------|-------|------|-------|-----|---|---------|-------|-------|-------|----|---|-------|---|---|-----|
B|-------|-------|------|-------|-----|---|---------|-------|-------|-------|----|---|-------|---|---|-----|
G|-------|-0-0-0-|------|-0-0-0-|-----|-o-|---------|-2-2-2-|-------|-2-2-2-|----|-2-|-------|-0-|---|-0-0-|
D|-3-3-3-|-------|3-3-3-|-------|-3-3-|---|-3-5-5-5-|-------|-5-5-5-|-------|5-5-|---|-5-2-2-|---|-2-|-----|
A|-3-3-3-|-------|3-3-3-|-------|-3-3-|---|-3-5-5-5-|-------|-5-5-5-|-------|5-5-|---|-5-2-2-|---|-2-|-----|
E|-1-1-1-|-------|1-1-1-|-------|-1-1-|---|-1-3-3-3-|-------|-3-3-3-|-------|3-3-|---|-3-0-0-|---|-0-|-----|

E|---|---|-----|---|---|-----|-------|---|---|---|---|-----|-----|---|---|-----|
B|---|---|-----|---|---|-----|-------|---|---|---|---|-----|-----|---|---|-----|
G|---|-0-|-----|-0-|---|-0-0-|-------|-0-|---|-0-|---|-0-0-|-----|-0-|---|-0-0-|
D|-2-|---|-2-2-|---|-2-|-----|-2-3-3-|---|-3-|---|-3-|-----|-3-3-|---|-3-|-----|
A|-2-|---|-2-2-|---|-2-|-----|-2-3-3-|---|-3-|---|-3-|-----|-3-3-|---|-3-|-----|
E|-0-|---|-0-0-|---|-0-|-----|-0-1-1-|---|-1-|---|-1-|-----|-1-1-|---|-1-|-----|

[AFTER]
E|-----|-------|-------|-------|-----|---|---------|-------|-------|-------|---|---|
B|-----|-1-1-1-|-------|-1-1-1-|-----|-1-|---------|-3-3-3-|-------|-3-3-3-|---|-3-|
G|-----|-------|-------|-------|-----|---|---------|-------|-------|-------|---|---|
D|-3-3-|-------|-3-3-3-|-------|-3-3-|---|-3-5-5-5-|-------|-5-5-5-|-------|-5-|---|
A|-3-3-|-------|-3-3-3-|-------|-3-3-|---|-3-5-5-5-|-------|-5-5-5-|-------|-5-|---|
E|-1-1-|-------|-1-1-1-|-------|-1-1-|---|-1-3-3-3-|-------|-3-3-3-|-------|-3-|---|

E|-----|---|---|-----|----|---|-----|-----|--------|---|-----|---|---|-----|---|---|-----|---|---|-----|
B|-----|-0-|---|-0-0-|----|-0-|-----|-0-0-|--------|-0-|-----|-1-|---|-1-1-|---|-1-|-----|-1-|---|-1-1-|
G|-----|---|---|-----|----|---|-----|-----|--------|---|-----|---|---|-----|---|---|-----|---|---|-----|
D|-2-2-|---|-2-|-----|--2-|---|-2-2-|-----|-2----2-|---|-3-3-|---|-3-|-----|-3-|---|-3-3-|---|-3-|-----|
A|-2-2-|---|-2-|-----|--2-|---|-2-2-|-----|-2----2-|---|-3-3-|---|-3-|-----|-3-|---|-3-3-|---|-3-|-----|
E|-0-0-|---|-0-|-----|--0-|---|-0-0-|-----|-0----0-|---|-1-1-|---|-1-|-----|-1-|---|-1-1-|---|-1-|-----|

[Chorus]
No tengas miedo de sentir que tu cuerpo se acerca más a mí
E|---------|--|-----------|---------|---|-----------|
B|---------|--|-----------|---------|---|-----------|
G|---------|--|-----------|---------|---|-----------|
D|-3-3-3-3-|7-|-5-5-5-5-5-|-7-7-7-7-|-2-|-3-3-3-3-3-|
A|-3-3-3-3-|7-|-5-5-5-5-5-|-7-7-7-7-|-2-|-3-3-3-3-3-|
E|-1-1-1-1-|5-|-3-3-3-3-3-|-5-5-5-5-|-0-|-1-1-1-1-1-|

No tienes que fingir solo dilo y larguémonos de aquí
E|---------|---|-----------|---------|--|----------|
B|---------|---|-----------|---------|--|----------|
G|---------|---|-----------|---------|--|-5-5-5-5--|
D|-3-3-3-3-|-7-|-5-5-5-5-5-|-7-7-7-7-|5-|-5-5-5-5--|
A|-3-3-3-3-|-7-|-5-5-5-5-5-|-7-7-7-7-|5-|-3-3-3-3--|
E|-1-1-1-1-|-5-|-3-3-3-3-3-|-5-5-5-5-|3-|----------|

Oh! Oh! Oh! No tengas miedo de sentir
E|---------|---|-----------|---------|---|-----------|
B|---------|---|-----------|---------|---|-----------|
G|---------|---|-----------|---------|---|-----------|
D|-3-3-3-3-|-7-|-5-5-5-5-5-|-7-7-7-7-|-2-|-3-3-3-3-3-|
A|-3-3-3-3-|-7-|-5-5-5-5-5-|-7-7-7-7-|-2-|-3-3-3-3-3-|
E|-1-1-1-1-|-5-|-3-3-3-3-3-|-5-5-5-5-|-0-|-1-1-1-1-1-|

Oh! Oh! Oh! Solo dilo y larguémonos de aquí
E|---------|---|-----------|---------|-----|
B|---------|---|-----------|---------|-----|
G|---------|---|-----------|---------|--5--|
D|-3-3-3-3-|-7-|-5-5-5-5-5-|-7-7-7-7-|5-5--|
A|-3-3-3-3-|-7-|-5-5-5-5-5-|-7-7-7-7-|5-3--|
E|-1-1-1-1-|-5-|-3-3-3-3-3-|-5-5-5-5-|3-3--|

Acompañamiento del coro
X3 (en el cuarto tiempo de la última del tercer cambio solo se cuentan 8)
E|-------------------------|-------------------------|-------------------------------------------------|
B|-13-13-13-13-13-13-13-13-|-12-12-12-12-12-12-12-12-|-13-13-13-13-13-13-13-13-13-13-13-13-13-13-13-13-|
G|-12-12-12-12-12-12-12-12-|-12-12-12-12-12-12-12-12-|-12-12-12-12-12-12-12-12-12-12-12-12-12-12-12-12-|
D|-10-10-10-10-10-10-10-10-|-10-10-10-10-10-10-10-10-|-10-10-10-10-10-10-10-10-10-10-10-10-10-10-10-10-|
A|-------------------------|-------------------------|-------------------------------------------------|
E|-------------------------|-------------------------|-------------------------------------------------|
            
Submit corrections


        El Juego lessons Hard to play? Try these video lessons and learn fast El Juego lessons
        
↑ Back to top | Tablatures and chords for acoustic guitar and electric guitar, ukulele, drums are parodies/interpretations of the original songs. You may use it for private study, scholarship, research or language learning purposes only