» » »

Alligatoah - Namen Machen Tabs

Artists:  A B C D E F G H I J K L M N O P Q R S T U V W X Y Z # 

Namen Machen Tabs

(ver. 2) Click to play this song!
Alligatoah
 Rating:
4.5/5 (21 vote)

 Namen Machen lessons Tabs too difficult? Try these video lessons and learn fast
 
                Alle Akkorde

Fm4    C#4    G#3    C4         D#4

|      |4     |      |          |
|9     |6     |      |          |8
|10    |6     |5     |9         |8
|10    |6     |6     |10        |8
|8     |4     |6     |10        |6
|      |      |4     |8         |



Es sind das ganze Lied uber die selben Akkorde,
nur am Ende sind manchmal kleine Unterschiede.

Hort euch den Rhythmus am besten selber aus dem Song raus
viel Spas :)


################# Intro #################
[2x]
|------------------4-------|--------------------------|------------------4-------|--------------------------|
|------9--------------6----|--------------------------|------9--------------6----|--------------------------|
|------------------------6-|------5-------------------|------------------------6-|------5--------------9====|
|--10----------------------|------------------10-11-8-|--10----------------------|--------------------------|
|8--------4================|---6----------------------|8--------4================|---6--------------10------|
|--------------------------|4--------8================|--------------------------|4--------8================|

Aaahh, YUAH, Whuuuu, 
|--------------------------|--------------------------|--------------------------|--------------------------|
|9----9----6------6---6--6-|--------------------------|9----9----6------6---6--6-|--------------------------|
|10---10---6------8---8--8-|5---5---9--------9---9--9-|10---10---6------8---8--8-|5---5---9--------9---9--9-|
|10---10---6------8---8--8-|6---6---10-------10--10-10|10---10---6------8---8--8-|6---6---10-------10--10-10|
|8----8----4------4---4--4-|6---6---10-------10--10-10|8----8----4------4---4--4-|6---6---10-------10--10-10|
|--------------------------|4---4---8--------8---8--8-|--------------------------|4---4---8--------8---8--8-|

Alligatoah, Yeah,   aha .
|--------------------------|--------------------------|--------------------------|--------------------------|
|9----9----6------6---6--6-|--------------------------|9----9----6------6---6--6-|-----------------8========|
|10---10---6------8---8--8-|5---5---9--------9---9--9-|10---10---6------8---8--8-|5---5---9--------8========|
|10---10---6------8---8--8-|6---6---10-------10--10-10|10---10---6------8---8--8-|6---6---10-------8========|
|8----8----4------4---4--4-|6---6---10-------10--10-10|8----8----4------4---4--4-|6---6---10-------6========|
|--------------------------|4---4---8--------8---8--8-|--------------------------|4---4---8-----------------|



################# Strophe #################

Die Konkurrenz schlaft nie, die User grinsen ...
[7x]
|--------------------------|--------------------------|--------------------------|--------------------------|
|9----9----6------6---6--6-|--------------------------|9----9----6------6---6--6-|--------------------------|
|10---10---6------8---8--8-|5---5---9--------9---9--9-|10---10---6------8---8--8-|5---5---9--------9---9--9-|
|10---10---6------8---8--8-|6---6---10-------10--10-10|10---10---6------8---8--8-|6---6---10-------10--10-10|
|8----8----4------4---4--4-|6---6---10-------10--10-10|8----8----4------4---4--4-|6---6---10-------10--10-10|
|--------------------------|4---4---8--------8---8--8-|--------------------------|4---4---8--------8---8--8-|

Hunderttausend Views, hier werden Legenden gemacht ...
[1x]
|--------------------------|--------------------------|--------------------------|--------------------------|
|9----9----6------6---6--6-|--------------------------|9----9----6------6---6--6-|-----------------8========|
|10---10---6------8---8--8-|5---5---9--------9---9--9-|10---10---6------8---8--8-|5---5---9--------8========|
|10---10---6------8---8--8-|6---6---10-------10--10-10|10---10---6------8---8--8-|6---6---10-------8========|
|8----8----4------4---4--4-|6---6---10-------10--10-10|8----8----4------4---4--4-|6---6---10-------6========|
|--------------------------|4---4---8--------8---8--8-|--------------------------|4---4---8-----------------|


################# Refrain #################

Willst du dir 'nen Namen machen, musst du auf die Strase kacken.
|--------------------------|--------------------------|--------------------------|--------------------------|
|9----9----6------6---6--6-|--------------------------|9----9----6------6---6--6-|--------------------------|
|10---10---6------8---8--8-|5---5---9--------9---9--9-|10---10---6------8---8--8-|5---5---9--------9---9--9-|
|10---10---6------8---8--8-|6---6---10-------10--10-10|10---10---6------8---8--8-|6---6---10-------10--10-10|
|8----8----4------4---4--4-|6---6---10-------10--10-10|8----8----4------4---4--4-|6---6---10-------10--10-10|
|--------------------------|4---4---8--------8---8--8-|--------------------------|4---4---8--------8---8--8-|

Zeig den Leuten mal, was in dir steckt, ohhhh
|--------------------------|--------------------------|--------------------------|--------------------------|
|9----9----6------6---6--6-|--------------------------|9----9----6------6---6--6-|------------8-----6-------|
|10---10---6------8---8--8-|5---5---9--------9---9--9-|10---10---6------8---8--8-|5---5-------8-----6-------|
|10---10---6------8---8--8-|6---6---10-------10--10-10|10---10---6------8---8--8-|6---6-------8-----6-------|
|8----8----4------4---4--4-|6---6---10-------10--10-10|8----8----4------4---4--4-|6---6-------6-----4-------|
|--------------------------|4---4---8--------8---8--8-|--------------------------|4---4---------------------|

Ahhhh 
|--------------------------|
|--------------------------|
|9=========================|
|10========================|
|10========================|
|8=========================|


################# Outro #################

Kack' auf die Strase, Homeboy. Kack' auf die Strase, Homeboy. 
[4x]
|--------------------------|--------------------------|--------------------------|--------------------------|
|9----9----6------6---6--6-|--------------------------|9----9----6------6---6--6-|--------------------------|
|10---10---6------8---8--8-|5---5---9--------9---9--9-|10---10---6------8---8--8-|5---5---9--------9---9--9-|
|10---10---6------8---8--8-|6---6---10-------10--10-10|10---10---6------8---8--8-|6---6---10-------10--10-10|
|8----8----4------4---4--4-|6---6---10-------10--10-10|8----8----4------4---4--4-|6---6---10-------10--10-10|
|--------------------------|4---4---8--------8---8--8-|--------------------------|4---4---8--------8---8--8-|
            
Submit corrections


        Namen Machen lessons Hard to play? Try these video lessons and learn fast Namen Machen lessons
        
↑ Back to top | Tablatures and chords for acoustic guitar and electric guitar, ukulele, drums are parodies/interpretations of the original songs. You may use it for private study, scholarship, research or language learning purposes only