» » »

Alkaline Trio - Exploding Boy Tabs

Artists:  A B C D E F G H I J K L M N O P Q R S T U V W X Y Z # 

Exploding Boy Tabs

(ver. 1) Click to play this song!
Alkaline Trio
 Rating:
4/5 (4 votes)

 Exploding Boy lessons Tabs too difficult? Try these video lessons and learn fast
 
                INTRO (bass guitar acoustic) / VERSE / CHROUS
|--------------------------------------------------------------|
|--------------------------------------------------------------|
|--------------------------------------------------------------|
|-3-3-3-3-3-3-7-7-7-7-7-7-10-10-10-10-10-10-10-10-10-10-10-10--|
|-1-1-1-1-1-1-5-5-5-5-5-5--8--8--8--8--8--8--8--8--8--8--8--8--|
|--------------------------------------------------------------|

INTERLUDE
|------------------------------------------------------------------------|
|------------------------------------------------------------------------|
|------------------------------------------------------------------------|
|-7-7-7-10-5-5-5--7-7-7-10-5-5-5--7-7-7-10-5-5-5--3-3-3-3-3-3-3-3-3-3-3--|
|-5-5-5--8-3-3-3--5-5-5--8-3-3-3--5-5-5--8-3-3-3--1-1-1-1-1-1-1-1-1-1-1--|
|------------------------------------------------------------------------|

CHROUS
|-------------------|
|-------------------|
|-3------5------10--|
|-3------5------10--|
|-1------7-------8--|
|-------------------|

MINI THING
|------------|
|------------|
|-7-7-5-5-5--|		Play this during CHORUS
|------------|
|-5-5-3-3-3--|
|------------|
            
Submit corrections


        Exploding Boy lessons Hard to play? Try these video lessons and learn fast Exploding Boy lessons
        
↑ Back to top | Tablatures and chords for acoustic guitar and electric guitar, ukulele, drums are parodies/interpretations of the original songs. You may use it for private study, scholarship, research or language learning purposes only