» » »

Alkaline Trio - Eating Me Alive Tabs

Artists:  A B C D E F G H I J K L M N O P Q R S T U V W X Y Z # 

Eating Me Alive Tabs

(ver. 1) Click to play this song!
Alkaline Trio
 Rating:
4/5 (4 votes)

 Eating Me Alive lessons Tabs too difficult? Try these video lessons and learn fast
 
                Standard Tuning

Intro
-Synth Part
e|----------------------------------|
B|----------------------------------|
G|---9----10--9----12--10--9--10--9-|
D|10---10-------10------------------|
A|----------------------------------|
E|----------------------------------|

-Guitar Part
e|-----------------------------------------------------------------------|
B|-----------------------------------------------------------------------|
G|5----------------------------------5-----------------------------------|
D|5------------5----7----------------5------------5----7--------3----5---|
A|3------------5----7----------------3------------5----7--------3----5---| 
E|-------------3----5-----------------------------3----5--------1----3---|

Verse
PM. . . . . . . . . . . . . . . . . . . . . . . . . . . . . . . .
e|----------------------------------------------------------------|
B|----------------------------------------------------------------|
G|5-5-5-5-5-5-5-5-5-5-5-5-5-5-5-5---------------------------------|
D|5-5-5-5-5-5-5-5-5-5-5-5-5-5-5-5-5-5-5-5-5-5-5-5-5-5-5-5-5-5-5-5-|
A|3-3-3-3-3-3-3-3-3-3-3-3-3-3-3-3-5-5-5-5-5-5-5-5-5-5-5-5-5-5-5-5-|
E|--------------------------------3-3-3-3-3-3-3-3-3-3-3-3-3-3-3-3-|

  . . . . . . . . . . . . . . . . . . . . . . . . . . . . . 
e|----------------------------------------------------------------|
B|----------------------------------------------------------------|
G|----------------------------------------------------------------|
D|2-2-2-2-2-2-2-2-2-2-2-2-2-2-2-2-3-3-3-3-3-3-3-3-5-5-5-5-5-5-5-5-|
A|2-2-2-2-2-2-2-2-3-3-3-3-5-5-5-5-3-3-3-3-3-3-3-3-5-5-5-5-5-5-5-5-|
E|0-0-0-0-0-0-0-0-0-0-0-0-0-0-0-0-1-1-1-1-1-1-1-1-3-3-3-3-3-3-3-3-|

  . . . . . . . . . . . . . . . . . .   . .   .   . . .   . .
e|----------------------------------------------------------------|
B|----------------------------------------------------------------|
G|5-5-5-5-5-5-5-5-5-5-5-5-5-5-5-5---------------------------------|
D|5-5-5-5-5-5-5-5-5-5-5-5-5-5-5-5-5-5-5-5-5-5-5-5-5-5-5-5-5-5-5-5-|
A|3-3-3-3-3-3-3-3-3-3-3-3-3-3-3-3-5-5-5-5-5-5-5-5-5-5-5-5-5-5-5-5-|
E|--------------------------------3-3-3-3-3-3-3-3-3-3-3-3-3-3-3-3-|

  . . . . . . . . . . . . . . . . . . . . . . . . . . . . 
e|----------------------------------------------------------------|
B|----------------------------------------------------------------|
G|----------------------------------------------------------------|
D|2-2-2-2-2-2-2-2-2-2-2-2-2-2-2-2-3-3-3-3-3-3-3-3-5-5-5-5-5-5-5-5-|
A|2-2-2-2-2-2-2-2-3-3-3-3-5-5-5-5-3-3-3-3-3-3-3-3-5-5-5-5-5-5-5-5-|
E|0-0-0-0-0-0-0-0-0-0-0-0-0-0-0-0-1-1-1-1-1-1-1-1-3-3-3-3-3-3-3-3-|

Chorus
e|------------------------------------------------------------------------|
B|------------------------------------------------------------------------|
G|------------5-5---------------------5-5---------------------5-5---------|
D|7-7---3-3---5-5---5-5---7-7---3-3---5-5---5-5---7-7---3-3---5-5---5-5---|
A|7-7---3-3---3-3---5-5---7-7---3-3---3-3---5-5---7-7---3-3---3-3---5-5---|
E|5-5---1-1---------3-3---5-5---1-1---------3-3---5-5---1-1---------3-3---|

e|--------------------------------|
B|--------------------------------|
G|--------------------------------|
D|3-3-3-3-3-3-3-3-5-5-5-5-5-5-5-5-|
A|3-3-3-3-3-3-3-3-5-5-5-5-5-5-5-5-|
E|1-1-1-1-1-1-1-1-3-3-3-3-3-3-3-3-|

Repeat Intro

Repeat Verse

Repeat Chorus

Bridge
e|-----------------------------------------------------------------------|
B|-----------------------------------------------------------------------|
G|5----------------------------------5-----------------------------------|
D|5------------5----7----------------5------------5----7-------------3-3-|
A|3------------5----7----------------3------------5----7-------------3-3-| 
E|-------------3----5-----------------------------3----5-------------1-1-|

e|----------------------------------------------------------------|
B|----------------------------------------------------------------|
G|----------------------------------------------------------------|
D|5-5-5-5-5-5-5-5-5-5-5-5-5-5-5-5-7-7-7-7-7-7-7-7-3-3-3-3-3-3-3-3-|
A|5-5-5-5-5-5-5-5-5-5-5-5-5-5-5-5-7-7-7-7-7-7-7-7-3-3-3-3-3-3-3-3-|
E|3-3-3-3-3-3-3-3-3-3-3-3-3-3-3-3-5-5-5-5-5-5-5-5-1-1-1-1-1-1-1-1-|

e|----------------------------------------------------------------|
B|----------------------------------------------------------------|
G|----------------------------------------------------------------|
D|5-5-5-5-5-5-5-5-5-5-5-5-5-5-5-5-7-7-7-7-7-7-7-7-3-3-3-3-5-5-5-5-|
A|5-5-5-5-5-5-5-5-5-5-5-5-5-5-5-5-7-7-7-7-7-7-7-7-3-3-3-3-5-5-5-5-|
E|3-3-3-3-3-3-3-3-3-3-3-3-3-3-3-3-5-5-5-5-5-5-5-5-1-1-1-1-3-3-3-3-|

Final Chorus
e|----------------------------------------------------------------|
B|----------------------------------------------------------------|
G|----------------5-5-5-5-------------------------5-5-5-5---------|
D|7-7-7-7-3-3-3-3-5-5-5-5-5-5-5-5-7-7-7-7-3-3-3-3-5-5-5-5-5-5-5-5-|
A|7-7-7-7-3-3-3-3-3-3-3-3-5-5-5-5-7-7-7-7-3-3-3-3-3-3-3-3-5-5-5-5-|
E|5-5-5-5-1-1-1-1---------3-3-3-3-5-5-5-5-1-1-1-1---------3-3-3-3-|

e|----------------------------------------------------------------|
B|----------------------------------------------------------------|
G|----------------5-5-5-5-----------------------------------------|
D|7-7-7-7-3-3-3-3-5-5-5-5-5-5-5-5-3-3-3-3-3-3-3-3-5-5-5-5-5-5-5-5-|
A|7-7-7-7-3-3-3-3-3-3-3-3-5-5-5-5-3-3-3-3-3-3-3-3-5-5-5-5-5-5-5-5-|
E|5-5-5-5-1-1-1-1---------3-3-3-3-1-1-1-1-1-1-1-1-3-3-3-3-3-3-3-3-|

Outro
e|----------------------------------------------------------------|
B|----------------------------------------------------------------|
G|5-5-5-5-5-5-5-5-5-5-5-5-----------------------------------------|
D|5-5-5-5-5-5-5-5-5-5-5-5-5-5-5-5-7-7-7-7-7-7-7-7-3-3-3-3-5-5-5-5-| 2x
A|3-3-3-3-3-3-3-3-3-3-3-3-5-5-5-5-7-7-7-7-7-7-7-7-3-3-3-3-5-5-5-5-|
E|------------------------3-3-3-3-5-5-5-5-5-5-5-5-1-1-1-1-3-3-3-3-|

e|----------------|
B|----------------|
G|5---------------|
D|5---------------|
A|3---------------|
E|----------------|            
Submit corrections


        Eating Me Alive lessons Hard to play? Try these video lessons and learn fast Eating Me Alive lessons
        
↑ Back to top | Tablatures and chords for acoustic guitar and electric guitar, ukulele, drums are parodies/interpretations of the original songs. You may use it for private study, scholarship, research or language learning purposes only