» » »

Alkaline Trio - Donnes Song All Night Tabs

Artists:  A B C D E F G H I J K L M N O P Q R S T U V W X Y Z # 

Donnes Song All Night Tabs

(ver. 1) Click to play this song!
Alkaline Trio
 Rating:
4/5 (4 votes)

 Donnes Song All Night lessons Tabs too difficult? Try these video lessons and learn fast
 
                Donnes Party (All Night)
Standard E Tuning

Verse   
E---------------------
B---------------------
G---------------------
D------------7-7-----    x 10
A----4--7---5-5-----
E----2--5------------

Chorus 

E---------------------| ------Last-|--Time------------------------
B---------------------| -----------|------------------------------
G  -------------------| -----------|------------------------------
D------------6-4--7---|--------6-4-|------------------------------
A----7--7----4-2--5---|---7-7--4-2--|-555---555---555---7~~~~~~~~~
E----5--5-------------|---5-5------|--------------------5~~~~~~~~~


Bridge
E------------------            |-----------------------------------------
B------------------            |-----------------------------------------
G--7---6-----------            |--7777---6666----------------------------
D--x---x--4---7----   x2 THEN  |--xxxx---xxxx---4444---7777-----For the Remaining
A--5---4--x---x----            |--5555---4444---xxxx---xxxx-----------Times
E---------2---5----            |----------------2222---5555--------------

Verse
Chorus
Verse 
Chorus
Bridge
Chorus

The only parts I’m not 100% about are the last note the first time in the chorus and the last 2 chords of the bridge.  It’s a great song though and I’m pretty sure I’m write about those parts
            
Submit corrections


        Donnes Song All Night lessons Hard to play? Try these video lessons and learn fast Donnes Song All Night lessons
        
↑ Back to top | Tablatures and chords for acoustic guitar and electric guitar, ukulele, drums are parodies/interpretations of the original songs. You may use it for private study, scholarship, research or language learning purposes only