Home » A » Alkaline Trio »

Alkaline Trio - Blue In The Face Bass

Artists:  A B C D E F G H I J K L M N O P Q R S T U V W X Y Z # 

Blue In The Face Bass

(ver. 1) Click to play this song!
Alkaline Trio
 Rating:
3.4/5 (5 votes)
                This might seem a little weird @ first, but if you listen to the song, it should fit in quite well

intro
G---------------------------------------------------|
D---------------------------------------------------|
A---------------------------------------------------|
E-4-4-4-4-4-4-5-5-5-5-5-5-4-4-4-4-4-4-5-5-5-5-5-5---|  x2


verse 1(Its about time, that i came clean with you...)
G------------------------------------------------|
D------------------------------------------------|
A------------------------------------------------|
E-0-0-0-0-0-5-0-0-0-0-0-5-5-5-5-4-4-4-2-2-2------|     x4


chorus 1(Till im blue in the face with a choking regret...)
G---------------------------------------------------|
D---------------------------------------------------|  x2
A-0-0-0-------2-2-2-2-2-2-0-0-0-------2-2-2-2-2-2---|
E-------0-0-0-------------------0-0-0---------------|

(Cant say i blame u one bit when u kept it all inside...)
G----------------------------------------------------|
D----------------------------------------------------|
A-0-0-0-------2-2-2-2-2-2----------------------------| x1
E-------0-0-0-------------4-4-4-4-4-4-5-5-5-7-7-7-0--|


Verse 2 is the same as verse 1, and the chorus 2 is obviously the same as the first one

Bridge (and all tht followed fell...)
G---------------------------------------------------|
D---------------------------------------------------|
A-7-7-7-7-7-7-6-6-6-6-6-6-9-9-9-9-9-9-7-7-7-7-7-7---|  x4
E---------------------------------------------------|

(& i dont dream, since i quit sleeping...)
G--------------------------------------------------|
D--------------------------------------------------|
A--------------------------------------------------| x3
E-0-0-0-0-0-0-2-2-2-2-2-2-4-4-4-4-4-4-5-5-5-5-5-5--|

The last bar (niether can i, so what d'you say...)
G-----------------------------------------------------|
D-----------------------------------------------------|
A-----------------------------------------------------|
E-2-2-2-2-2-2-2-2-2-2-2-2-4-5-5-5-5-5-5-7-7-7-7-7-7-0-|

Yay!!! :D

And thats just about it, youll have to work out the timing for this, but its a good 
so just, enjoy...
            
Submit corrections

↑ Back to top | Tablatures and chords for acoustic guitar and electric guitar, ukulele, drums are parodies/interpretations of the original songs. You may use it for private study, scholarship, research or language learning purposes only