» » »

Alkaline Trio - Bleeder Bass

Artists:  A B C D E F G H I J K L M N O P Q R S T U V W X Y Z # 

Bleeder Bass

(ver. 1) Click to play this song!
Alkaline Trio
 Rating:
4.2/5 (5 votes)

 Bleeder lessons Tabs too difficult? Try these video lessons and learn fast
 
                Band: Alkaline Trio
Standard Tuning - EADG

Intro x4
G|------------|
D|-----1/3333-|
A|-333--------|
E|------------|

Verse 1
G|-------------------------------------------------------------------------|
D|----------33333-4h5-2h4----------------------------------33333/555\33333-|
A|------333---------------3h5-3h5-----55555------00-22-333-----------------|
E|-7/9\---------------------------333-------1111---------------------------|

G-----------------|
D-----------------|
A-----/555\33-----|
E-333---------1~~-|

Break
G|-------------------------------------------------------------------------------|
D|----------12(x13)-----55555-----55555---------------------------9(x4)----------|
A|-10-10-10---------333-------333----------------5/7-5-3-5-/7777-----------------|
E|--------------------------------------33333333------------------------111-3333-|

Verse 2
G|----------------------------------------------------------------------------|
D|-----33333------00-22--------------------------33333------------------55555-|
A|-333-------3333-----------55555------00-22-333-------333/888-10-8-----------|
E|----------------------333-------1111------------------------------333-------|

G----------------------------------------------------------------------------------|
D----------------33333-5555-3p2---------------------------------33333--------------|
A------------333----------------5p3------5h7p5-3------00-22-333-------3333-5-7-5-3-|
E-1-x-11-x-1------------------------3333---------1111------------------------------|

G---------------|
D---------------|
A------55-33/8\-|
E-3333----------|

Chorus 1
G|-----------------------------------------------------------------|
D|------------------55555-----55555----------------/9999\----------|
A|-10(x3)-88-77-333-------333-----------------7777-----------------|
E|----------------------------------333-33-33-------------111-3333-|

Verse 3    x5
G|-----------|---------------------------------------------------------------------|
D|-----33333-|------22-33-----------------------------33333------------------------|
A|-333-------|-3333-----------33333----3----3---3-333-------333/888-7-5------22-33-|
E|-----------|------------333-------11---11---1-------------------------3333-------|

G---------------------------------------------------------------------------|
D---------33333------------------------------------------55555--------------|
A-----333-------3333-5h7p5-3------2h3p2--------00-22-333-------3333-7-8-7-5-|
E-1~~------------------------3333-------3-1111------------------------------|

G------------------|
D------------------|
A------3h5p3-2-----|
E-3333---------1~~-|

Chorus 1

End Chorus     x2          x2
G|---------------|-----------|----------------------------------------|
D|--------12(x4)-|------5555-|------------------------/9999\----------|
A|-10(x4)--------|-3333------|----------55555555-7777-----------------|
E|---------------|-----------|-33333333----------------------111-3333-|

Bridge                 x1                                  x4                 x2
G|-----------------------|----------------------------------|----------------------|
D|-----------------------|----------------------------------|----------------------|
A|-3~-/8~-3~-33-8~-88----|-3(x24)---------------------------|-3(x16)-10(x8)-8(x32)-|
E|--------------------3~-|--------3(x8)-1(x16)-3(x8)-1(x8)--|----------------------|

        x3                x1                   x1
G|------------|------------------------------|---------------------------|
D|------------|------------------------------|---------------------------|
A|-3333-5-333-|-55-77-8(x16)-10(x8)-88888888-|-77777777-5555-3333--------|
E|------------|------------------------------|--------------------3(x15)-|
       ^      repeat all x2    ^

Last Chorus   x2           x2
G|---------------|-----------|---------------------------------------|
D|--------12(x4)-|------5555-|---------------------------------------|
A|-10(x4)--------|-3333------|----------5/7-5-3-5-77777777\----------|
E|---------------|-----------|-33333333---------------------111-3333-|
repeat up to                 ^

then:
G|-------------------------------|
D|-------------------------------|
A|--------77777777\----------3~~-|
E|-3(x16)-----------111-3333-----|
            
Submit corrections


        Bleeder lessons Hard to play? Try these video lessons and learn fast Bleeder lessons
        
↑ Back to top | Tablatures and chords for acoustic guitar and electric guitar, ukulele, drums are parodies/interpretations of the original songs. You may use it for private study, scholarship, research or language learning purposes only