» » »

Alkaline Trio - Angel Alcohol Tabs

Artists:  A B C D E F G H I J K L M N O P Q R S T U V W X Y Z # 

Angel Alcohol Tabs

(ver. 1) Click to play this song!
Alkaline Trio
 Rating:
4/5 (4 votes)

 Angel Alcohol lessons Tabs too difficult? Try these video lessons and learn fast
 
                ALKALINE TRIO
ANGEL ALCOHOL
UNRELEASED DEMO

This is unreleased which i think is also under the title of "Will You Stay If I Shut

Work out strumming patterns

INTRO x 2
E|---------------------|
B|---------------------|
G|-------9---9---------|
D|---9---9---9---------|
A|---9---6---7---------|
E|---7-----------------|


VERSE x 4
E|----------------|
B|----------------|
G|----------9-----|
D|--9--11---9-----|
A|--9--11---7-----|
E|--7--9----------|


CHORUS - well it's so good to breathe in your morning air
E|------------------|
B|------------------|
G|---6---9---4--8-6-|
D|---6---9---4--x-x-| x 2
A|---4---7---2--6-4-|
E|------------------|

its so good to believe it....
E|------------------------|
B|------------------------|
G|---6---9---6---9--------|
D|---6---9---6---9—-| x 1-|
A|---4---7---4---7--------|
E|------------------------|

I am everywhere i ever wanna go
E|------------------------|
B|------------------------|
G|------------------------|
D|---9---7---2—-----| x 2-|
A|---9---7---2------------|
E|---7---5---0------------|


INTRO X 2

VERSE X 4

CHORUS


BRIDGE PART 1
E|------------------------|
B|------------------------|
G|-8-9-4-9-8-11-13--------|
D|-x-x-x-x-x--x--x--| x 2-|
A|-6-7-2-7 -6--9-11-------|
E|------------------------|

BRIDGE PART 2
E|-----|----------------|
B|-----|----------------|
G|-11--|-11-8-9-13------|
D|--9--|--X-X-X--X-—----|
A|--9--|--9-6-7-11------|
E|-----|----------------|

THE FIRST CHORD IS PLAYED FOR THE WHOLE OF THE SECOND PART OF THE BRIDGE EXCEPT IN THE
YOU CAN HEAR THE SECOND PART BEING PLAYED.


CHORUS - changes a little bit but its just one part being played an extra time, its easy 
figure out.

END
            
Submit corrections


        Angel Alcohol lessons Hard to play? Try these video lessons and learn fast Angel Alcohol lessons
        
↑ Back to top | Tablatures and chords for acoustic guitar and electric guitar, ukulele, drums are parodies/interpretations of the original songs. You may use it for private study, scholarship, research or language learning purposes only