Home » A » Alison Krauss »

Alison Krauss - Whiskey Lullaby Tabs

Artists:  A B C D E F G H I J K L M N O P Q R S T U V W X Y Z # 

Whiskey Lullaby Tabs

(ver. 1) Click to play this song!
Alison Krauss
(Intro)
------0-2-0-------------------0-2-0---2-------------------------------------|
--------------3-2-0-----------------3---------------------------------------|
----------------------------------------------------------------------------|
----------------------------------------------------------------------------|
----2-----------------------2-----------------------------------------------|
----------------------------------------------------------------------------|

after that last note there is a G chord that looks like this

3--slide--5-|
3---------3-|
0---------0-|
0---------0-|
2---------2-|
3---------3-|

on the last part of the chord, if you listen to the song for the timing, you slide your 
finger (pinkie finger) up to the 5th threat. this is the opening to Whiskey Lullaby. Enjoy!
            
Submit corrections

↑ Back to top | Tablatures and chords for acoustic guitar and electric guitar, ukulele, drums are parodies/interpretations of the original songs. You may use it for private study, scholarship, research or language learning purposes only