» » »

Alison Krauss - Baby Now That I Found You Tabs

Artists:  A B C D E F G H I J K L M N O P Q R S T U V W X Y Z # 

Baby Now That I Found You Tabs

(ver. 2) Click to play this song!
Alison Krauss
 Rating:
4.4/5 (5 votes)

 Baby Now That I Found You lessons Tabs too difficult? Try these video lessons and learn fast
 
                [Intro]

e|--------0-------0------------0-------0-------------0-------0-------------0--------0-----|
B|------3-------3------------3-------3-------------3-------3-------------3--------3-------|
G|--2---------2------------0-------0-------------0-------0-------------0--------0---------|
D|--0-------0-----------------------------------------------------------------------------|
A|------x-------x--------3---x---3---x---------2---x---2---x---------1---x----1---x-------|
E|------x-------x------------x-------x-------------x-------x-------------x--------x-------|

e|--------0-------0------------0-------0---------------------------------0------0---------|
B|------3-------3------------3-------3---------------3--------3-----3------3--------------|
G|--2---------2--------------0-------0-------------0--------0-------0---------0-----------|
D|--0-------0--------------2-------2-------------0-0-----0--0-----------------0-----------|
A|------x-------x------------x-------x-------------x--------x-------0--x------x-----------|
E|------x-------x--------0---x---0---x---------3---x---3----x----------x------x-----------|


[Verse]

e|--------0-------0------------0-------0-------------0-------0-------------0--------0-----|
B|------3-------3------------3-------3-------------3-------3-------------3--------3-------|
G|--2---------2------------0-------0-------------0-------0-------------0--------0---------|
D|--0-------0-----------------------------------------------------------------------------|
A|------x-------x--------3---x---3---x---------2---x---2---x---------1---x----1---x-------|
E|------x-------x------------x-------x-------------x-------x-------------x--------x-------|

e|--------0-------0------------0-------0---------------------------------0------0---------|
B|------3-------3------------3-------3---------------3--------3-----3------3--------------|
G|--2---------2--------------0-------0-------------0--------0-------0---------0-----------| 2x
D|--0-------0--------------2-------2-------------0-0-----0--0-----------------0-----------|
A|------x-------x------------x-------x-------------x--------x-------0--x------x-----------|
E|------x-------x--------0---x---0---x---------3---x---3----x----------x------x-----------|

e|--------0-------------0--------|
B|------3-------------3----------|
G|--2---------2------------------| 2x
D|--0-------0--------------------|
A|------x------0-2-3--x------0---|
E|------x-------------x----3-----|



[Chorus]

B                    F#m
Spent my life looking for that somebody
B         F#m         B    B Bb
To make me feel like new
A                       Em
Now you tell me that you wanna leave me
G                     A
But darling, I just can't let you



e|--------0-------0------------0-------0-------------0-------0-------------0--|
B|------3-------3------------3-------3-------------3-------3-------------3----|
G|--2---------2------------0-------0-------------0-------0-------------0------|
D|--0-------0-----------------------------------------------------------------|
A|------x-------x--------3---x---3---x---------2---x---2---x---------1---x----|
E|------x-------x------------x-------x-------------x-------x-------------x----|



[Solo]

e|----------------5-5-------------------3-5-3----2--------5------------------|
B|-----3-5-5s7------------3-------3-5s7------------5-3------3-3--------------|
G|---------------------------------------------------------------------------|
D|---------------------------------------------------------------------------|
A|---------------------------------------------------------------------------|
E|---------------------------------------------------------------------------|

e|-------------------------------------------------------------------10-7-5----------------------------|
B|-------------8s10-8-6-5-------8s10-----------10s12-----------------8--7-5----------------------------|
G|------7-6-7-----------------7------7-7--9p7--------9-9----9p7---7-----------4h6-4s2--0---------------|
D|--------------------------------------------------------------9------------------------2h4-2--0-0----|
A|-----------------------------------------------------------------------------------------------------|
E|-----------------------------------------------------------------------------------------------------|            
Submit corrections


        Baby Now That I Found You lessons Hard to play? Try these video lessons and learn fast Baby Now That I Found You lessons
        
↑ Back to top | Tablatures and chords for acoustic guitar and electric guitar, ukulele, drums are parodies/interpretations of the original songs. You may use it for private study, scholarship, research or language learning purposes only