» » »

Al Green - Take Me To The River Tabs

Artists:  A B C D E F G H I J K L M N O P Q R S T U V W X Y Z # 

Take Me To The River Tabs

(ver. 1) Click to play this song!
Al Green
 Rating:
2.6/5 (24 votes)

 Take Me To The River lessons Tabs too difficult? Try these video lessons and learn fast
 
                   Intro     Verses   Chorus
   Emaj      E  D A   C(sus4)    G(G6)    D(sus4)   A7
E|-0-------|-0--2-1-|----------------------------------
B|-0-------|-0--3-1-|-5-6-6-5----8-8-8-8--7-8-8-7---10-
G|-1-(/13)-|-1--2-2-|-5-5-5-5----7-9-9-7--7-7-7-7---12-
D|-2-------|-2--0---|-5-5-5-5----9-9-9-9--7-7-7-7---11-
A|-2-------|-2------|-------------------------------12-
E|-0-------|-0------|----------------------------------

In the verses, skip the A for the lead in to the Chorus
Just use a Normal A (Standard Open Amaj) for 2nd Verse rather the higher version shown in the tab.

Bridge
   C#min(7)      A(7)               G(G6)     B7
E|-9--9--9--9--|-9--9--9--9--|    |---------|-7-
B|-9--12-12-9--|-10-10-10-10-|    |-8-8-8-8-|-7-
G|-9--9--9--9--|-9--12-12-9--| x2 |-7-9-9-7-|-8-
D|-11-11-11-11-|-11-11-11-11-|    |-9-9-9-9-|-7-
A|-------------|-------------|    |---------|-9-
E|-------------|-------------|    |---------|-7-            
Submit corrections


        Take Me To The River lessons Hard to play? Try these video lessons and learn fast Take Me To The River lessons
        
↑ Back to top | Tablatures and chords for acoustic guitar and electric guitar, ukulele, drums are parodies/interpretations of the original songs. You may use it for private study, scholarship, research or language learning purposes only