» » »

Al Green - Take Me To The River Bass

Artists:  A B C D E F G H I J K L M N O P Q R S T U V W X Y Z # 

Take Me To The River Bass

(ver. 1) Click to play this song!
Al Green
 Rating:
4.3/5 (9 votes)

 Take Me To The River lessons Tabs too difficult? Try these video lessons and learn fast
 
                 Intro
  Q=118
 4/4
  Gtr I
  W          W            Q  E E E E E E   E E E E +E  E E E
|----------|----------||-----------------|-------7-(7)-9-7----|
|----------|----------||o----------------|-6-7-9--------------|
|----------|----------||o----------------|-----------------7--|
|----------|----------||--0----0-0-0---0-|--------------------|


                                         $
  Q  E E E E E E   E E E E +E  E E E  3x
|----------------|-------7-(7)-9-7----||-|
|----------------|-6-7-9-------------o||-|
|----------------|-----------------7-o||-|
|-0----0-0-0---0-|--------------------||-|


   1st - 3rd Verses
    Q  E E E E E E   E E E E +E  E E E
||-----------------|-------7-(7)-9-7----|
||o----------------|-6-7-9--------------|
||o----------------|-----------------7--|
||--0----0-0-0---0-|--------------------|


  Q  E E E E E E   E E E E +E  E E E   Q  E E E E E E   E E E E +E  E E E
|----------------|-------7-(7)-9-7---|----------------|-------7-(7)-9-7---|
|----------------|-6-7-9-------------|----------------|-6-7-9-------------|
|----------------|-----------------7-|----------------|-----------------7-|
|-0----0-0-0---0-|-------------------|-0----0-0-0---0-|-------------------|


                                       Chorus
  Q  E E E E E E   E E E E +E  E E E    +Q.   E E E E E   +E  E Q  E S S E E
|----------------|-------7-(7)-9-----||-----------------|---------------------|
|----------------|-6-7-9-------------||-----------------|------------------0--|
|----------------|-----------------3-||-(3)---3-3-------|------------2-3-4----|
|-0----0-0-0---0-|-------------------||-----------0-1-3-|-(3)-3-3--3----------|


                                                           2/4
  +Q   Q  E E E E   +Q   E E +Q   E E   +Q   E E +Q   E E   +Q   E E
|-----------------|-------------------|-------------------|----------|
|-(0)--0--0-0-----|-------------------|-------------------|----------|
|-------------0-0-|-(0)----0-(0)----0-|-(0)----0-(0)----0-|-(0)----0-|
|-----------------|------0--------0---|------0--------0---|------0---|


 4/4
  E E Q  E Q  E   E E E E +E  E E E   Q  E E E E E E   E E E E +E  E E E
|---------------|-------7-(7)-9-7---|----------------|-------7-(7)-9-7----|
|---------------|-6-7-9-------------|----------------|-6-7-9--------------|
|---------------|-----------------7-|----------------|-----------------7--|
|---0----0----0-|-------------------|-0----0-0-0---0-|--------------------|


                                                                   To Coda
  Q  E E E E E E   E E E E +E  E E E   Q  E E E E E E   E E E E +E  E E E
|----------------|-------7-(7)-9-7---|----------------|-------7-(7)-9-7------||
|----------------|-6-7-9-------------|----------------|-6-7-9---------------o||
|----------------|-----------------7-|----------------|-----------------7---o||
|-0----0-0-0---0-|-------------------|-0----0-0-0---0-|----------------------||


 Bridge
  Q  Q  E Q  E   +E  E Q  E E E E   +E  E Q  E E E E   +E  E Q  E E E E
|--------------|------------------|------------------|------------------|
|--------------|------------------|------------------|----------------0-|
|-4--4--4-4--0-|-(0)-0-0--0---2-4-|-(4)-4-4--4-4---0-|-(0)-0-0--0-0-4---|
|--------------|------------4-----|--------------4---|------------------|


  +E  E Q  E E E E   +E  E Q  E E E E   +E  E Q  E E E E   +E  E Q  E E E E
|------------------|------------------|------------------|------------------|
|-(0)-0-0--0-0-----|------------------|------------------|------------------|
|--------------0-2-|-(2)-2-2--2-2-2-2-|-(2)-2-2--2-0---2-|-(2)-2-2--2-2-2-2-|
|------------------|------------------|--------------4---|------------------|


  +E  E E E E Q  E   E E E E +E  E E E
|------------------|-------7-(7)-9-7---|
|------------------|-6-7-9-------------|
|-(2)--------------|-----------------7-|
|-----0-0-0-0----0-|-------------------|


                    1.,2.
    Q  E E E E E E   E E E E +E  E E E  3x
||-----------------|-------7-(7)-9-7----||
||o----------------|-6-7-9-------------o||
||o----------------|-----------------7-o||
||--0----0-0-0---0-|--------------------||
            
Submit corrections


        Take Me To The River lessons Hard to play? Try these video lessons and learn fast Take Me To The River lessons
        
↑ Back to top | Tablatures and chords for acoustic guitar and electric guitar, ukulele, drums are parodies/interpretations of the original songs. You may use it for private study, scholarship, research or language learning purposes only