» » »

Algernon Cadwallader - Spit Fountain Bass

Artists:  A B C D E F G H I J K L M N O P Q R S T U V W X Y Z # 

Spit Fountain Bass

(ver. 1) Click to play this song!
Algernon Cadwallader
 Rating:
1.9/5 (29 votes)

 Spit Fountain  lessons Tabs too difficult? Try these video lessons and learn fast
 
                Tuning:  EADG      Couldn't find a tab. This should be pretty close. 

G|---------------------------------------------------------------------------| Not exact note count;
D|---------------------------------------------------------------------------| 2 measures of A at 4x4
A|-00000000000000000000000000000--555555555555555555555555555555555555-------| then 2 measures of D
E|---------------------------------------------------------------------------|  Listen for Changes

  "FROG SPIT!"

G|---------------------------------------------------------------------------| 
D|---------------------------------------------------------------------------| 
A|-0000000000000000000000000000--5555555555555555555555555555555555555-------|  
E|---------------------------------------------------------------------------|

G|---------------------------------------------------------------------------|  2 Measures of F# followed by
D|-------------------------------9999999999999999-77777777777777777777-------|  1 measure each B(9 ) --> A(7)
A|-9999999999999999999999999999----------------------------------------------| 
E|---------------------------------------------------------------------------|

G|---------------------------------------------------------------------------|  Exact note count
D|---------------------------------------------------------------------------|
A|---------------------------------------------------------------------------| 
E|-5-5-5-5-5-5-5-5-3-3-3-3-3-3-3-3-5-5-5-5-5-5-5-5-3-3-3-3-3-3-3-3-----------|

G|---------------------------------------------------------------------------|  
D|---------------------------------------------------------------------------|  Similar to first verse
A|-00000000-55555555-00000000-55555555-00000000-55557777-00000000-55555555---|  Now alternate every measure
E|---------------------------------------------------------------------------|

G|------------------------------------------------------------------------------| 
D|------------------------------------------------------------------------------| 
A|-----------44-4h5-5------------44-4h5-5-----------44-4h5-5------------44-4h5-5|  Each riff is 2 measures
E|-7-7--5-5------------7-7-5-5------------7-7-5-5-------------7-7-5-5-----------| repeat 4X; total 8 Measures

G|----------------------------------------------------------------------------| 
D|----------------------------------------------------------------------------| 
A|-------------5-4--------------5-4--------------5-4--------------5-4---------| 
E|-5-5-55-5-5------7-5-5-55-5-5-----7-5-5-55-5-5-----7-5-5-55-5-5-----7-5-----|

 
G|---------------------------------------------------------------------------|
D|---------------------------------------------------------------------------|
A|-00000000000000000000000000000--555555555555555555555555555555555555-------|
E|---------------------------------------------------------------------------|  
   "...TURTLE SPIT!" 

G|---------------------------------------------------------------------------|
D|---------------------------------------------------------------------------|
A|-00000000000000000000000000000--5555555555555555555555555555555555555------|
E|---------------------------------------------------------------------------|

G|---------------------------------------------------------------------------|  
D|-------------------------------9999999999999999-77777777777777777777-------|  
A|-9999999999999999999999999999----------------------------------------------| 
E|---------------------------------------------------------------------------|

G|---------------------------------------------------------------------------|  
D|---------------------------------------------------------------------------|
A|---------------------------------------------------------------------------| 
E|-5-5-5-5-5-5-5-5-3-3-3-3-3-3-3-3-5-5-5-5-5-5-5-5-3-3-3-3-3-3-3-3-----------|

G|---------------------------------------------------------------------------|  
D|---------------------------------------------------------------------------|  
A|-00000000-55555555-00000000-55555555-00000000-55557777-00000000-55555555---|  
E|---------------------------------------------------------------------------|

G|------------------------------------------------------------------------------| Same as before
D|------------------------------------------------------------------------------|  
A|-----------44-4h5-5------------44-4h5-5-----------44-4h5-5------------44-4h5-5|  
E|-7-7--5-5------------7-7-5-5------------7-7-5-5-------------7-7-5-5-----------| 

G|---------------------------------------------------------------------------| 
D|---------------------------------------------------------------------------|  
A|--0---------------------------------------------------------------------0--|  
E|---------------------------------------------------------------------------|            
Submit corrections


        Spit Fountain  lessons Hard to play? Try these video lessons and learn fast Spit Fountain  lessons
        
↑ Back to top | Tablatures and chords for acoustic guitar and electric guitar, ukulele, drums are parodies/interpretations of the original songs. You may use it for private study, scholarship, research or language learning purposes only