» » »

Alexisonfire - Where No One Knows Tabs

Artists:  A B C D E F G H I J K L M N O P Q R S T U V W X Y Z # 

Where No One Knows Tabs

(ver. 1) Click to play this song!
Alexisonfire
 Rating:
4/5 (4 votes)

 Where No One Knows lessons Tabs too difficult? Try these video lessons and learn fast
 
                Eb :------------------------------------------------------------------------------------
Bb :-0--0--3--0--2-0--3-0--5-0--3-0--2-3-2----------5-----3----2----2-3--5-3--2-3-5-3-2-
Gb :------------------------------------------2--2--------------------------------------
Db :------------------------------------------------------------------------------------
Ab :------------------------------------------------------------------------------------
Eb :------------------------------------------------------------------------------------

Eb :---------------------------12---10---9------------------------------12---10---9-----
Bb :15--0-14--0-10-0-12-0-10-0---------------15--0-14--0-10-0-12-0-10-0-----------------
Gb :------------------------------------------------------------------------------------
Db :------------------------------------------------------------------------------------
Ab :------------------------------------------------------------------------------------
Eb :------------------------------------------------------------------------------------

Gb :11-11-11-11--*---------------------------11-11-11-11--*-----------------------------
Db :-9--9--9--9--*----------------------------9--9--9--9--*-----------------------------
Ab :------------------------------------------------------------------------------------
Eb :------------------------------------------------------------------------------------


Eb :------------------------------------------------------------------------------------
Bb :-0--0--3--0--2-0--3-0--5-0--3-0--2-3-2----------5-----3----2----2-3--5-3--2-3--5-3-2
Gb :------------------------------------------2--2--------------------------------------
Db :------------------------------------------------------------------------------------
Ab :------------------------------------------------------------------------------------
Eb :------------------------------------------------------------------------------------

Eb :---------------------------12---10---9-----------------------------------12---10----
Bb :15--0-14--0-10-0-12-0-10-0---------------15--0-14--0-10-0-12-0-10-0-12-0------------
Gb :------------------------------------------------------------------------------------
Db :------------------------------------------------------------------------------------
Ab :------------------------------------------------------------------------------------
Eb :------------------------------------------------------------------------------------

Gb :11-11-11-11--*---------------------------11-11-11-11--*-----------------------------
Db :-9--9--9--9--*----------------------------9--9--9--9--*-----------------------------
Ab :------------------------------------------------------------------------------------
Eb :------------------------------------------------------------------------------------


Eb :-------------------------------------------------------------------------------------
Bb :--0--0--3--0--2-0--3-0-5-0--3-0--2-3-2----------5-----3-----2-----2-3--5-3--2-3-5-3-2
Gb :------------------------------------------2--2---------------------------------------
Db :-------------------------------------------------------------------------------------
Ab :-------------------------------------------------------------------------------------
Eb :-------------------------------------------------------------------------------------

Eb :-------------------------------------------------------------------------------------
Bb :-15--0-14--0-10-0-12-0-0-0-10-0-12-0-0-0-15--0-14--0-10--0-12--0--0-0-10-0-12-0-0---0
Gb :-------------------------------------------------------------------------------------
Db :-------------------------------------------------------------------------------------
Ab :-------------------------------------------------------------------------------------
Eb :-------------------------------------------------------------------------------------

Gb :-11-11-11-11--*--------------------------11-11-11-11--*-11-11-11-11-*----------------
Db :--9--9--9--9--*---------------------------9--9--9--9--*--9--9--9--9-*----------------
Ab :-------------------------------------------------------------------------------------
Eb :-------------------------------------------------------------------------------------


Eb :------------------------------------------------------------------------------------
Bb :--0--0--3--0--2-0--3-0-5-0--3-0--2-3-2----------5-----3----2----2-3--5-3--2-3-5-3-2-
Gb :------------------------------------------2--2--------------------------------------
Db :------------------------------------------------------------------------------------
Ab :------------------------------------------------------------------------------------
Eb :------------------------------------------------------------------------------------

Eb :--------------------------------------------------------------------12---10---9-----
Bb :-15--0-14--0-10-0-12-0-0-0-10-0-12-0-0-0-15--0-14--0-10-0-12-0-10-0-----------------
Gb :------------------------------------------------------------------------------------
Db :------------------------------------------------------------------------------------
Ab :------------------------------------------------------------------------------------
Eb :------------------------------------------------------------------------------------

Gb :-11-11-11-11--*--------------------------11-11-11-11--*-----------------------------
Db :--9--9--9--9--*---------------------------9--9--9--9--*-----------------------------
Ab :------------------------------------------------------------------------------------
Eb :------------------------------------------------------------------------------------


Eb :-------------------------------------------------------------------------------------
Bb :-------------------------------------------------------------------------------------
Gb :----------------------------------------------------------------------------(12)-----
Db :-9----------------------------------------------------------------------x-x---9------
Ab :-9----------------------------------------------------------------------x-x---9------
Eb :-7----------------------------------------------------------------------x-x---7------

Eb :-------------------------------------------------------------------------------------
Bb :15-0-14-0-10-0-12-0-0-0-10-0-12-0-0-0-15-0-14-0-10-0-12-0-0-0-10-0-12-0-0-0--15--0-14
Gb :-------------------------------------------------------------------------------------
Db :-------------------------------------------------------------------------------------
Ab :-------------------------------------------------------------------------------------
Eb :-------------------------------------------------------------------------------------

Gb :-------------------------------------------------------------------------------------
Db :-------------------------------------------------------------------------------------
Ab :-------------------------------------------------------------------------------------
Eb :-7----------------------------------------------------------------------------7------


Eb :------------------------------------------------------------------------------------
Bb :------------------------------------------------------------------------------------
Gb :------------------------------------------------------------------------------------
Db :---------------------------------5------------------------------------12-----9-----5
Ab :---------------------------------5------------------------------------12-----9-----5
Eb :------------------------------\--3------------------------------------10-----7-----3

Eb :------------------------------------------------------------------------------------
Bb :-0-10-0-12-0-0-0-10-0-12-0-0-0--15-0-14-0-10-0-12-0-0-0-10-0-12---------------------
Gb :------------------------------------------------------------------------------------
Db :------------------------------------------------------------------------------------
Ab :------------------------------------------------------------------------------------
Eb :------------------------------------------------------------------------------------

Gb :------------------------------------------------------------------------------------
Db :------------------------------------------------------------------------------------
Ab :------------------------------------------------------------------------------------
Eb :------------------------------\--3------------------------------------10-----7-----3


Eb :----------------------|
Bb :----------------------|
Gb :----------------------|
Db :---------------------*|
Ab :---------------------*|
Eb :---------------------*|

Eb :----------------------|
Bb :----------------------|
Gb :----------------------|
Db :-----------4-5-4-0---*|
Ab :----------------------|
Eb :----------------------|
            
Submit corrections


        Where No One Knows lessons Hard to play? Try these video lessons and learn fast Where No One Knows lessons
        
↑ Back to top | Tablatures and chords for acoustic guitar and electric guitar, ukulele, drums are parodies/interpretations of the original songs. You may use it for private study, scholarship, research or language learning purposes only