Home » A » Alexisonfire »

Alexisonfire - The Song With No Name Tabs

Artists:  A B C D E F G H I J K L M N O P Q R S T U V W X Y Z # 

The Song With No Name Tabs

(ver. 1) Click to play this song!
Alexisonfire
(Intro)
e|-------------------------------------------------------------------------|
B|-------------------------------------------------------------------------|
G|-------------------------------------------------------------------------|
D|-3--------------------------------------------3---------------3--3-3-2-2-|
A|------------4-5-7-7------1-1-1-1----4-4-5-7------------4-5-7------1-1-0-0|
D|---000000------------------------5--------------000000-------------------|

e|-------------------------------------------------------------------------|
B|-------------------------------------------------------------------------|
G|-------------------------------------------------x2----------------------|
D|-0--3-3---3-3--88888888888888888-7777777777777777----000-00--33333-------|
A|-0--3-3---3-3--88888888888888888-7777777777777777----000-00--33333-------|
D|-0--3-3---3-3--88888888888888888-7777777777777777----000-00--33333-------|

e|-------------------------------------------------------------------------|
B|-------------------------------------------------------------------------|
G|-------------------------------------------------------------------------|
D|-000-00-11111---000-00-55555---000--88887777-----------------------------|
A|-000-00-11111---000-00-55555---000--88887777-----------------------------|
D|-000-00-11111---000-00-55555---000--88887777-----------------------------|
            
Submit corrections

↑ Back to top | Tablatures and chords for acoustic guitar and electric guitar, ukulele, drums are parodies/interpretations of the original songs. You may use it for private study, scholarship, research or language learning purposes only