» » »

Alexi Murdoch - Wait Tabs

Artists:  A B C D E F G H I J K L M N O P Q R S T U V W X Y Z # 

Wait Tabs

(ver. 1) Click to play this song!
Alexi Murdoch
 Rating:
3/5 (8 votes)

 Wait lessons Tabs too difficult? Try these video lessons and learn fast
 
                Alexi Murdoch
Capo 1st Fret
Key F#

Intro:
  C#     C#        B               B
|------------------------------------------------------|
|-----1------1-------1---1-----1-------1---1-----1-----|
|-----0-0----0-0-----0---0-----0-------0---0-----0-----| x 2
|---2------2-------3---3---3---------3---3---3---------|
|-3------3-------1-----------1-----1-----------1-------|
|------------------------------------------------------|

Verse:

C#     C#        B               B
|------------------------------------------------------|
|-----1------1-------1---1-----1-------1---1-----1-----|
|-----0-0----0-0-----0---0-----0-------0---0-----0-----| x 2
|---2------2-------3---3---3---------3---3---3---------|
|-3------3-------1-----------1-----1-----------1-------|
|------------------------------------------------------|

Just the 
C# part then:  C       C       F#      F#
             |---------------------------------|
             |-----1-------1-------1-------1---|
             |-----0-------0-------0-------0---|
             |---3---3---3---3-----------------|
             |-2-------2---------3---3---3---3-|
             |-----------------1-------1-------|

then B part, then C# part, then B part,and then C# part

Chorus:

Chords:
   C#   F#sus9    Bsus3 F#sus9
|--0----1----3----1----1--|
|--1----1----6----1----1--|
|--0----0-or-5----3----0--|
|--2----3----3----3----3--|
|--3----3---------1----3--|
|----------------------1--|

repeat each as needed
            
Submit corrections


        Wait lessons Hard to play? Try these video lessons and learn fast Wait lessons
        
↑ Back to top | Tablatures and chords for acoustic guitar and electric guitar, ukulele, drums are parodies/interpretations of the original songs. You may use it for private study, scholarship, research or language learning purposes only