Home » A » Alex And Sierra »

Alex And Sierra - Little Do You Know Tabs

Artists:  A B C D E F G H I J K L M N O P Q R S T U V W X Y Z # 

Little Do You Know Tabs

(ver. 1) Click to play this song!
Alex And Sierra
Chord Tabs:

      Am     F      C      G     or Gsus      C/E     Am7   G/B      F^     Em     Dm     

e|-----x-----x------x------x----------x--------x-------x-----x-------x-------x------x-------------|
B|-----1-----1------1------3-or-1-----3--------1-------1-----3-------10------8------6-------------|
G|-----2-----2------0------0----------5--------0-------0-----0-------10------9------7-------------|
D|-----2-----3------2------0----------5--------2-------2-----0-------10------9------7-------------|
A|-----0-----3------3------2----------5--------3-------0-----2-------8-------7------5-------------|
E|-----x-----1------x------3----------3--------0-------x-----x-------x-------x------x-------------|

Note: 
1. It's your choice if you want to pluck the 1st (e) string. It's my decision not to 
that's why I did not include it on this Tab.
2. "F^" is also F but an octave higher.
3. The 6th (E) string on C/E should be clearly played.
4. For F, use your thumb for E|---1----|
5. You can play either G or Gsus

Chord Alternatives:

     Am  or  Am      G  or  G       F^      Em     Dm

e|----x-------8------x------7-------5--------3------1-------------------------------|
B|----13------10-----12-----8-------6--------5------3-------------------------------|
G|----14------9------12-----7-------5--------4------2-------------------------------|
D|----14------7------12-----5-------3--------2------0-------------------------------|
A|----12------x------10-----x-------x--------x------x-------------------------------|
E|----x-------x------x------x-------x--------x------x-------------------------------|

Note: These Chord alternatives are mainly for the part: "So lay your head on me.."


Plucking style example:

         C/E                       F
e|-----------------------------------------------------------------------------|
B|--------1-----1-----1-----1------1-----1--------1------1---------------------|
G|--------0-----0-----0-----0------2-----2--------2------2---------------------|
D|--------2-----2-----2-----2------3-----3--------3------3---------------------|
A|-------(3)-------------------------------------------------------------------|
E|--------0--0-----0-----0-----0---1--1--------1-----1-------1-----------------|
   I'll wait,      I'll wait   I love you like you've never felt the...

Note: Always play the bass of the chord separate from the body of the chord.


Now let's sing!

I.
               Am
Little do you know
        F                  C      G(or Gsus)
How I'm breaking while you fall asleep
               Am
Little do you know
          F              C    G
I'm still haunted by the memories
               Am
Little do you know
              F                C          G
I'm trying to pick myself up piece by piece
              F  
Little do you know
                G
I need a little more time
              Am           F              C         G
Underneath it all I'm held captive by the hole inside
                  Am           F                   C             G
I've been holding back for the fear that you might change your mind
                Am               F           C         G
I'm ready to forgive you but forgetting is a harder fight
              F
Little do you know
               G 
I need a little more time


First Chorus:

     C/E
I'll wait, I'll wait
  F                                    C
I love you like you've never felt the pain, away
  F                             C
I promise you don't have to be afraid, away
    F                                Am  G/B  F^   Em Dm
The love is here and here to stay so lay your head on me


How to Play the last part of Chorus:

Option 1:

     Am      G/B      F     Em    Dm
e|---------------------------------------------------------------------------|
B|----13------12------10----8-----6------------------------------------------|
G|----14------12------10----9-----7------------------------------------------|
D|----14------12------10----9-----7------------------------------------------|
A|----12------10------8-----7-----5------------------------------------------|
E|---------------------------------------------------------------------------|
     lay     your    head  on     me..

Option 2:

     Am     G/B     F     Em    Dm
e|---------------------------------------------------------------------------|
B|----1------3------10----8-----6--------------------------------------------|
G|------------------10----9-----7--------------------------------------------|
D|-------2----------10----9-----7--------------------------------------------|
A|----0------2------8-----7-----5--------------------------------------------|
E|---------------------------------------------------------------------------|
     lay    your   head  on     me..

Option 3:

      Am      G      F        Em    Dm

e|----8------7-------5--------3------1-------------------------------|
B|----10-----8-------6--------5------3-------------------------------|
G|----9------7-------5--------4------2-------------------------------|
D|----7------5-------3--------2------0-------------------------------|
A|----x------x-------x--------x------x-------------------------------|
E|----x------x-------x--------x------x-------------------------------|
     lay    your   head      on     me..


II.
               Am
Little do you know
              F              C        G
I know you're hurting while I'm sound asleep
              Am
Little do you know
             F             C         G
All my mistakes are slowly drowning me
              Am
Little do you know
              F              C        G
I'm trying to make it better piece by piece
              F
Little do you know
                    G
I love you till the sun dies


Second Chorus:

     C/E
I'll wait, just wait
  F                                 C/E            
I love you like I've never felt the pain, just wait
  F                               C/E 
I love you like I've never been afraid, just wait
     F                               Am   G/B  F^  Em Dm
Our love is here and here to stay so lay your head on me
     C/E
I'll wait (oh wait), I'll wait (oh wait)
  F                                   
I love you like you've never felt 
    C/E          
The pain, I'll wait (I'll wait)
  F                                C         
I promise you(I) don't have to be afraid, I'll wait
    F                                 Am   G/B  F^  Em Dm
The love is here and here to stay so lay your head on me

 Am  G/B  F^  Em Dm
Lay your head on me

    Am G/B  F^  Em Dm 
So lay your head on me

                     F
'Cause little do you know
                    G (let ring)
I love you till the sun dies
            
Submit corrections

↑ Back to top | Tablatures and chords for acoustic guitar and electric guitar, ukulele, drums are parodies/interpretations of the original songs. You may use it for private study, scholarship, research or language learning purposes only