» » »

Aleks Syntek - Sin Ti Tabs

Artists:  A B C D E F G H I J K L M N O P Q R S T U V W X Y Z # 

Sin Ti Tabs

(ver. 1) Click to play this song!
Aleks Syntek
 Rating:
4.2/5 (5 votes)

 Sin Ti lessons Tabs too difficult? Try these video lessons and learn fast
 
                -------------------------------------------------------------------------------
-------------------------------------------------------------------------------

Tuning:Standard (EADgbe)

Otra buenísima rola de Aleks Syntek del Lugar Secreto.

Intro
e|-----------------------------|
B|-----------------------------|
G|-----7-------8-7-------------|
D|---8---8---8-----8---8-10-8--|
A|---------6---------6---------|
E|-6---------------------------|

Guitarra de fondo en palm muted (sigue en el verso)
e|-------------------------------------|
B|-------------------------------------|
G|-77-77-77-88-88-88-77-77-77-77-88-8--|
D|-88-88-88-88-88-88-88-88-88-88-66-8--|
A|-------------------------------------|
E|-------------------------------------|

A#	   Cm
Llevame contigo
A#	     Cm
guardame un lugar
A#	    Cm   G#
cerca de tu corazon.
A#	   Cm
Dejame tenerte
A#	   Cm
dejate querer
A#	    Cm  	 G#
antes de que pierda la razon.

Coro (palm muted)
e|------------------|
B|------------------|
G|-5-5-77-5-5-77-5--|
D|------------------| De base pueden utilizar los acordes C5 y D5 en el coro
A|------------------|
E|------------------|

		C# - D# - F
no te puedo dejar
		C# - D# - F
tu conmigo estaras
		C# - D# - F
no te puedo dejar
		C# - D# - F
tu conmigo estaras

Solo 
e|---------------------------------------------|
B|------3-4----------3-4--------3---6-4-3-4----|
G|-/3-5-----5-3--3-5-----5--3-5---3---------3--|
D|---------------------------------------------|
A|---------------------------------------------|
E|---------------------------------------------|

| /  slide up
| \  slide down
| h  hammer-on
| p  pull-off
| ~  vibrato
| +  harmonic
| x  Mute note
===============================================================================
            
Submit corrections


        Sin Ti lessons Hard to play? Try these video lessons and learn fast Sin Ti lessons
        
↑ Back to top | Tablatures and chords for acoustic guitar and electric guitar, ukulele, drums are parodies/interpretations of the original songs. You may use it for private study, scholarship, research or language learning purposes only