» » »

Alec Benjamin - If I Killed Someone For You Tabs

Artists:  A B C D E F G H I J K L M N O P Q R S T U V W X Y Z # 

If I Killed Someone For You Tabs

(ver. 1) Click to play this song!
Alec Benjamin
 Rating:
4.4/5 (7 votes)

 If I Killed Someone For You lessons Tabs too difficult? Try these video lessons and learn fast
 
                Intro]

e|-----------------|-----------------|
B|-------3---------|-------3---------|
G|-----4---4-------|-----4---4-------|
D|---4-------4---4-|---4-------4-----|
A|-2-----------2---|-2-----------2---|
E|-----------------|-----------------|

[Verses]

e|-----------------|-----------------|
B|-------3---------|-------3---------|
G|-----4---4-------|-----4---4-------|
D|---4-------4---4-|---4-------4-----|
A|-2-----------2---|-2-----------2---|
E|-----------------|-----------------|

"I'm sorry that I did this, the blood is on my hands"

e|-----------------|-----------------|
B|-----------------|-----------------|
G|-------4---------|-------4---------|
D|-----5---5-------|-----5---5-------|
A|---5-------5---5-|---5-------5-----|
E|-3-----------3---|-3-----------3---|

"I stare at my own reflection, I don't know who I am"

e|-----------------|-----------------|
A|-------7---------|-------7---------|
G|-----7---7-------|-----7---7-------|
D|---7-------7---7-|---7-------7-----|
A|-5-----------5---|-5-----------5---|
E|-----------------|-----------------|

"Practice my confession in case I take the stand"

e|-----------------|-----------------|
B|-----------------|-----------------|
G|-------3---------|-------3---------|
D|-----4---4-------|-----4---4-------|
A|---4-------4---4-|---4-------4-----|
E|-2-----------2---|-2-----------2---|

            
Submit corrections


        If I Killed Someone For You lessons Hard to play? Try these video lessons and learn fast If I Killed Someone For You lessons
        
↑ Back to top | Tablatures and chords for acoustic guitar and electric guitar, ukulele, drums are parodies/interpretations of the original songs. You may use it for private study, scholarship, research or language learning purposes only