Home » A » Albert King »

Albert King - Crosscut Saw Tabs

Artists:  A B C D E F G H I J K L M N O P Q R S T U V W X Y Z # 

Crosscut Saw Tabs

(ver. 1) Click to play this song!
Albert King
E|-------7b--- 7b--7p4--7p4---4--7----9b--9p7------------|
B|---9-9--------------------7----7------------9 -9-------|
G|-8-----------------------------------------------------|
D|-------------------------------------------------------|
A|-------------------------------------------------------|
E|-------------------------------------------------------|
 
E|-4-7b--7p4--7b--7b-4--------.-4--------4---------------|
B|---------------------------4----7p4--7---4--7p4--------|
G|------------------------6b----------------------6b-8 --|
D|-------------------------------------------------------|
A|-------------------------------------------------------|
E|-------------------------------------------------------|
 
 
 
 
E|-4-7b--7--4--7b--7b--4--4------------------------------|
B|---------------------------9/7--4----------------------|
G|----------------------------------6-4--4---------------|
D|-----------------------------------------6-----4-------|
A|-------------------------------------------6-6---------|
E|-------------------------------------------------------|
 
 
 
E|----4-------4-4-4-------7b--4--7--------4--------------------|
B|------------------7-------------------4---7--4---------9--7--|
G|-6b------6b------------------------6b----------6-4h5/8-------|
D|-------------------------------------------------------------|
A|-------------------------------------------------------------|
E|-------------------------------------------------------------|
 
 
 
 
E|--------4---------4--------------------------7b--4--7b-|
B|-----4--------2/4---4----------------------------------|
G|---4------------------6-4------------------------------|
D|-6-------------------------6---------------------------|
A|------------------------------6--6---------------------|
E|-------------------------------------------------------|
 
E|------4--------------4-------------4----------4---------------|
B|----4---7--4------/4---7-------4------------4---7-4-----------|
G|-6b----------6p4-------------4-----------6b---------6--4b-----|
D|----------------------------------------------------------6---|
A|------------------------------------------------------------6-|
E|--------------------------------------------------------------|
 
 
 
 
E|---7--9---9b---9b--9b--7----------------8b----4---7b--7p4--7--7b--|
B|-9-----------------------9--9--7----------------------------------|
G|------------------------------------------------------------------|
D|------------------------------------------------------------------|
A|------------------------------------------------------------------|
E|------------------------------------------------------------------|
 
E|-4-7------4--7b--7b---7b-7b-7b-7b---7b-7b--7p4---7p4-------4--4---|
B|---7-------------------------------------------4------7-----------|
G|------------------------------------------------------------------|
D|------------------------------------------------------------------|
A|------------------------------------------------------------------|
E|------------------------------------------------------------------|
 
 
 
 
E|----------------------4--4--9b--7b-----8b-8b-8b--4---7-|
B|-9/7-4----------------4--4---------------------------7-|
G|-------6--4--------------------------------------------|
D|---------------6---------------------------------------|
A|------------------6------------------------------------|
E|-------------------------------------------------------|
 
E|-9b---4----7b--7--4--7--7b---4--7-----------------4-------4-4--|
B|-----------------------------------9p7--------2/4----4--7------|
G|---------------------------------------------------------------|
D|---------------------------------------------------------------|
A|---------------------------------------------------------------|
E|---------------------------------------------------------------|
 
 
 
 
E|-7b-7-4-------------------7b--7--4--7--7b--4------------------------|
B|--------4--7p4---4-----4----------------------9--9/7--4-------------|
G|---------------6----------------------------------------6--4--------|
D|-------------------------------------------------------------6------|
A|---------------------------------------------------------------6-6--|
E|--------------------------------------------------------------------|
 
E|-4--------7b--4--7b------------4----------------4---------------4--4--4------------ -|
B|-4-------------------------/4----7--4--------/4---7-----------4---------4-----------|
G|--------------------------------------6--4h5---------------6b-------------6--4b-----|
D|-------------------------------------------------------------------------------6----|
A|---------------------------------------------------------------------------------6--|
E|------------------------------------------------------------------------------------|
 
 
 
 
E|-9b-----7----------------9b------7--------7----------7b---7b--4----------4--------------------|
B|----------9--9--7-------------------9--9-----9--7---------------7p4----4-----7b---7b--4-------|
G|--------------------------------------------------------------------6b------------------6b--4-|
D|----------------------------------------------------------------------------------------------|
A|----------------------------------------------------------------------------------------------|
E|----------------------------------------------------------------------------------------------|
 
E|---------4--------------------------------------------------|
B|------------7p4----4----------------------------------------|
G|-----------------6---4--------------------------------------|
D|--6-------------------------6--4b --------------------------|
A|-----------------------------------6------------------------|
E|------------------------------------------------------------|
            
Submit corrections

↑ Back to top | Tablatures and chords for acoustic guitar and electric guitar, ukulele, drums are parodies/interpretations of the original songs. You may use it for private study, scholarship, research or language learning purposes only