Home » A » Albert Collins »

Albert Collins - Shes Into Something Chords

Artists:  A B C D E F G H I J K L M N O P Q R S T U V W X Y Z # 

Shes Into Something Chords

(ver. 1) Click to play this song!
Albert Collins
[Intro]
              D7                                  C7
e|----------|-10-------------------------------|-------------------------|
B|----------|-10--------10-10-10---------------|-----8-8-8-----------5---|
G|----------|-10h11----------------------------|--9----------------3h5-3h|
D|-12-12-12-|------------------------10-10-10--|-------------------------|
A|----------|----------------------------------|-------------------------|
E|----------|----------------------------------|-------------------------|
 
   G7
e|------------------3---------|
B|-------------3h5------------|
G|-5------3h4-----------------|
D|----------------------------|
A|----------------------------|
E|----------------------------|
 
 
[Verse 1]
N.C.
Say what she do!
       G7
The snappin' of her finger makes the dog wags its tail
 
The whistle from her voice will make a train jump the rail
 
Take her to a race track
 
Show her face
  G7  N.C.
Horse that ain't won in years
 
Comes in first place
 
 
[Chorus]
             C7
You know that, she's into something
    G7                        G7
Yeah, she's into something
D7                    C7
She's into something
C7                          G7         G7    D7
You should be into something, too
 
 
[Verse 2]
        G7
Well ya' laughed at her about a week ago
 
Now she's met a man with a whole lotta dough
 
And oh yeah he's rich
 
I've seen the money
 G7  N.C.                                       C7
All she had to do was to call the man honey, honey, honey
 
 
[Chorus]
C7
She's into something
     G7                      G7
Yeah, she's into something
    D7                      C7
Man, she's into something
                             G7       G7    D7
You should be into something, too
 
 
[Interlude]
| G7 | % | % | % | C7 | % | G7 | % | D7 | C7 | G7 | G7 D7 |
| G7 | % | % | % | C7 | % | G7 | % | D7 | C7 | G7 | G7 D7 |
| G 7| % | % | % | C7 | % | G7 | % | D7 | C 7| G7 | G7 N.C. D |
 
 
[Verse 3]
      G7
Every day of her life
 
She rides around on wheels
 
And oh yeah, you might say she's got herself a stone-cold deal
 
One thing the girl, she don't have to do
    G7    N.C.
Is worry about no money when the payment's due
 
 
[Chorus]
         C7
You know, she's into something
     G7
Yeah, she's into something
   D7                        C7
Man, she's into something
                             G7        G7    D7
You should be into something, too
      G7
Hey, hey
 
Mmmm
 
Hey, hey, yeah!
   C7
Mmmm
      G7
Yeah, yeah, yeah
 
 
[Outro]
              D7                                   C7
e|----------|-10-------------------------------|-------------------------|
B|----------|-10--------10-10-10---------------|-----8-8-8-----------5---|
G|----------|-10h11----------------------------|--9----------------3h5-3h|
D|-12-12-12-|------------------------10-10-10--|-------------------------|
A|----------|----------------------------------|-------------------------|
E|----------|----------------------------------|-------------------------|
 
   G7
e|------------------3---------|
B|-------------3h5------------|
G|-5------3h4-----------------|
D|----------------------------|
A|----------------------------|
E|----------------------------|
            
Submit corrections

↑ Back to top | Tablatures and chords for acoustic guitar and electric guitar, ukulele, drums are parodies/interpretations of the original songs. You may use it for private study, scholarship, research or language learning purposes only