» » »

Albatross - Afnai Sanar Ma Kina Tabs

Artists:  A B C D E F G H I J K L M N O P Q R S T U V W X Y Z # 

Afnai Sanar Ma Kina Tabs

(ver. 1) Click to play this song!
Albatross
 Rating:
4.4/5 (7 votes)

 Afnai Sanar Ma Kina  lessons Tabs too difficult? Try these video lessons and learn fast
 
                [Verse 1] (16 bars)

eb|---------------------------------------------------------------------------|
Bb|---------------------------------------------------------------------------|
Gb|---------------------------------------------------------------------------|
Db|------------------------------------------------------------0-2h--4-4-4-4--|
Ab|------------------------------------------------------------0-2h--2-2-2-2--|
Eb|---------------------------------------------------------------------------|

eb|---------------------------------------------------------------------------|
Bb|------------3-3---------------------------------3-3------------------------|
Gb|-------------------4----4-4-4----4-4---------------------4----4-4-4----4-4-|
Db|---0-4h--4-4-4-4---0-2h-2-2-0-2h-2-2---0-4h--4-4-4-4-----0-2h-2-2-0-2h-2-2-|
Ab|---0-2h-2-2-2-2------------------------0-2h-2-2-2-2------------------------|
Eb|---------------------------------------------------------------------------|

eb|---------------------------------------------------------------------------|
Bb|------------3-3---------------------------------3-3------------------------|
Gb|------------------4----4-4-4----4-4---------------------4----4-4-4----4-4--|
Db|--0-4h--4-4-4-4---0-2h-2-2-0-2h-2-2---0-4h--4-4-4-4-----0-2h-2-2-0-2h-2-2--|
Ab|--0-2h-2-2-2-2------------------------0-2h-2-2-2-2-------------------------|
Eb|---------------------------------------------------------------------------|

at the last bar play this 
eb|---------------------------------------------------------------------------|
Bb|---------------------------------------------------------------------------|
Gb|---------------------------------------------------------------------------|
Db|--2---4---5---7------------------------------------------------------------|
Ab|---------------------------------------------------------------------------|
Eb|---------------------------------------------------------------------------|


[Chorus] 

eb|---------------------------------------------------------------------------|
Bb|---------------------------------------------------------------------------|
Gb|--4--4--4--4---------------------------------------------------------------|
Db|-----------------0-4h--4--4--4----2-2-2-2---4-4-4-4---2-2-2-2---5-5-5-5----|
Ab|--5--5--5--5-----0-2h--2--2--2----2-2-2-2---2-2-2-2---2-2-2-2---2-2-2-2----|
Eb|--3--3--3--3---------------------------------------------------------------|

eb|---------------------------------------------------------------------------|
Bb|---------------------------------------------------------------------------|
Gb|--4--4--4--4---------------------------------------------------------------|
Db|-----------------0-4h--4--4--4----2-2-2-2---4-4-4-4---5-5-5-5---7-7-7-7----|
Ab|--5--5--5--5-----0-2h--2--2--2----2-2-2-2---2-2-2-2---2-2-2-2---2-2-2-2----|
Eb|--3--3--3--3---------------------------------------------------------------|

eb|---------------------------------------------------------------------------|
Bb|---------------------------------------------------------------------------|
Gb|--4--4--4--4---------------------------------------------------------------|
Db|-----------------0-2h--4--4--4----2--2--2--2---4--4--4--4----4--4--4--4--4-|
Ab|--5--5--5--5-----0-2h--2--2--2----3--3--3--3---5--5--5--5----2--2--2--2--2-|
Eb|--3--3--3--3---------------------------------------------------------------|


[Verse 2] (16 bars)

eb|---------------------------------------------------------------------------|
Bb|------------3-3---------------------------------3-3------------------------|
Gb|-------------------4----4-4-4----4-4---------------------4----4-4-4----4-4-|
Db|---0-4h--4-4-4-4---0-2h-2-2-0-2h-2-2---0-4h--4-4-4-4-----0-2h-2-2-0-2h-2-2-|
Ab|---0-2h-2-2-2-2------------------------0-2h-2-2-2-2------------------------|
Eb|---------------------------------------------------------------------------|

eb|---------------------------------------------------------------------------|
Bb|------------3-3---------------------------------3-3------------------------|
Gb|------------------4----4-4-4----4-4---------------------4----4-4-4----4-4--|
Db|--0-4h--4-4-4-4---0-2h-2-2-0-2h-2-2---0-4h--4-4-4-4-----0-2h-2-2-0-2h-2-2--|
Ab|--0-2h-2-2-2-2------------------------0-2h-2-2-2-2-------------------------|
Eb|---------------------------------------------------------------------------|

at the last bar play this 
eb|---------------------------------------------------------------------------|
Bb|---------------------------------------------------------------------------|
Gb|---------------------------------------------------------------------------|
Db|--2---4---5---7------------------------------------------------------------|
Ab|---------------------------------------------------------------------------|
Eb|---------------------------------------------------------------------------|


[Chorus]

eb|---------------------------------------------------------------------------|
Bb|---------------------------------------------------------------------------|
Gb|--4--4--4--4---------------------------------------------------------------|
Db|-----------------0-4h--4--4--4----2-2-2-2---4-4-4-4---2-2-2-2---5-5-5-5----|
Ab|--5--5--5--5-----0-2h--2--2--2----2-2-2-2---2-2-2-2---2-2-2-2---2-2-2-2----|
Eb|--3--3--3--3---------------------------------------------------------------|

eb|---------------------------------------------------------------------------|
Bb|---------------------------------------------------------------------------|
Gb|--4--4--4--4---------------------------------------------------------------|
Db|-----------------0-4h--4--4--4----2-2-2-2---4-4-4-4---5-5-5-5---7-7-7-7----|
Ab|--5--5--5--5-----0-2h--2--2--2----2-2-2-2---2-2-2-2---2-2-2-2---2-2-2-2----|
Eb|--3--3--3--3---------------------------------------------------------------|

eb|---------------------------------------------------------------------------|
Bb|---------------------------------------------------------------------------|
Gb|--4--4--4--4---------------------------------------------------------------|
Db|-----------------0-2h--4--4--4----2--2--2--2---4--4--4--4----4--4--4--4--4-|
Ab|--5--5--5--5-----0-2h--2--2--2----3--3--3--3---5--5--5--5----2--2--2--2--2-|
Eb|--3--3--3--3---------------------------------------------------------------|


[Solo]

eb|---------------------------------------------------------------------------|
Bb|--10-11-12--12-11-10--10-11-12--12-11-10--10-11-12--12-11-----10-11-12-----|
Gb|-----------------------------------------------------------12--------------|
Db|---------------------------------------------------------------------------|
Ab|---------------------------------------------------------------------------|
Eb|---------------------------------------------------------------------------|

eb|---------------------------------------------------------------------------|
Bb|--12-11------10N-11N-12N--12N-11N-10N--10N-11N-12N--12N-11N-10N------------|
Gb|--------12-----------------------------------------------------------------|
Db|---------------------------------------------------------------------------|
Ab|---------------------------------------------------------------------------|
Eb|---------------------------------------------------------------------------|

eb|-----------------------12--12-----------------------12--12-----------------|
Bb|--10N-11N-12N--12-11-----------10N-11N-12N--12-11-----------10N-11N-12N----|
Gb|---------------------12--12-----------------------12--12-------------------|
Db|---------------------------------------------------------------------------|
Ab|---------------------------------------------------------------------------|
Eb|---------------------------------------------------------------------------|

eb|---------------------------------------------------------------------------|
Bb|--12N-11N-10N--10N-11N-12N--12N-11N-10N---10N-11N-12N--12-11----10N-11N-12N|
Gb|-------------------------------------------------------------12------------|
Db|---------------------------------------------------------------------------|
Ab|---------------------------------------------------------------------------|
Eb|---------------------------------------------------------------------------|

eb|---------------------------------------------------------------------------|
Bb|--12-11----------------------7-7-8h-7p---------------------7-7-8h-7p-10\12-|
Gb|--------12-------------7---------------7------------7----------------------|
Db|-------------------5-----5----------------------5-----5--------------------|
Ab|---------------5\7---7-----7----------------5\7---7-----7------------------|
Eb|---------------------------------------------------------------------------|

eb|---------------------------------------------------------------------------|
Bb|----------------7-7-8h-7p-------------------7-7-8h-7p----------------------|
Gb|----------7---------------7----------7----------------6--------------------|
Db|------5-----5--------------------5-----5-----------------------------------|
Ab|--5\7---7-----7--------------5\7---7-----7---------------------------------|
Eb|---------------------------------------------------------------------------|

eb|---------------------------------------------------------------------------|
Bb|---------------------------------------------------------------------------|
Gb|-------------------------------------------------------2\4-----------------|
Db|------5-7-7-5---4-4-5h-4p---------5-7-7-5----4-4-5h-4p---------------------|
Ab|--5\7---------7----------5---5\7---------7---------------------------------|
Eb|---------------------------------------------------------------------------|

eb|---------------------------------------------------------------------------|
Bb|---------------------------------------------------------------------------|
Gb|---------------------------------------------------------------------------|
Db|------5-7-7-5---4-4-5h-4p--------5-7-7-5----4------------------------------|
Ab|--5\7---------7-----------5--5\7---------7---------------------------------|
Eb|---------------------------------------------------------------------------|


[Chorus]

eb|---------------------------------------------------------------------------|
Bb|---------------------------------------------------------------------------|
Gb|--4--4--4--4---------------------------------------------------------------|
Db|-----------------0-4h--4--4--4----2-2-2-2---4-4-4-4---2-2-2-2---5-5-5-5----|
Ab|--5--5--5--5-----0-2h--2--2--2----2-2-2-2---2-2-2-2---2-2-2-2---2-2-2-2----|
Eb|--3--3--3--3---------------------------------------------------------------|

eb|---------------------------------------------------------------------------|
Bb|---------------------------------------------------------------------------|
Gb|--4--4--4--4---------------------------------------------------------------|
Db|-----------------0-4h--4--4--4----2-2-2-2---4-4-4-4---5-5-5-5---7-7-7-7----|
Ab|--5--5--5--5-----0-2h--2--2--2----2-2-2-2---2-2-2-2---2-2-2-2---2-2-2-2----|
Eb|--3--3--3--3---------------------------------------------------------------|

eb|---------------------------------------------------------------------------|
Bb|---------------------------------------------------------------------------|
Gb|--4--4--4--4---------------------------------------------------------------|
Db|-----------------0-2h--4--4--4----2--2--2--2---4--4--4--4----4--4--4--4--4-|
Ab|--5--5--5--5-----0-2h--2--2--2----3--3--3--3---5--5--5--5----2--2--2--2--2-|
Eb|--3--3--3--3---------------------------------------------------------------|            
Submit corrections


        Afnai Sanar Ma Kina  lessons Hard to play? Try these video lessons and learn fast Afnai Sanar Ma Kina  lessons
        
↑ Back to top | Tablatures and chords for acoustic guitar and electric guitar, ukulele, drums are parodies/interpretations of the original songs. You may use it for private study, scholarship, research or language learning purposes only