Home » A » Alan Parsons Project »

Alan Parsons Project - Games People Play Tabs

Artists:  A B C D E F G H I J K L M N O P Q R S T U V W X Y Z # 

Games People Play Tabs

(ver. 3) Click to play this song!
Alan Parsons Project
Tuning: Standard

Solo
Alone
E|-------------------------------------------------------------------|
B|-------------------------------------------------------------------|
G|-9b11-7-7-9b11r9-9-7-7/11-11----9b11-7-7-9b11r9-9-7-9~-------------|
D|-------------------------------------------------------------------|
A|-------------------------------------------------------------------|
E|-------------------------------------------------------------------|
Harmony (might be off by one fret)
E|---------------------------------------------------------------------|
B|-14b16-12-12-14b16r14-14-12-12/16-16---14b16-12-12-14b16r14-14-12-14~|
G|---------------------------------------------------------------------|
D|---------------------------------------------------------------------|
A|---------------------------------------------------------------------|
E|---------------------------------------------------------------------|


E|---------------------------------------------------------------------|
B|---------------------------------------------------------------------|
G|-7h9-7h9-7h9-7h9-9-7-9b11r9p7-----7~---------------------------------|
D|------------------------------9p7----9-7-----------------------------|
A|-----------------------------------------7h8p7/5-7-5-----------------|
E|---------------------------------------------------------------------|
*The hammers-on are quite fast and then muted

E|-----------------------------------------------------------------|
B|-----------------------------------------------------------------|
G|-----------------------------------------------------------------|
D|-------7---------------------------------------------------------|
A|-7h8h9---7-9-7h8p7/5---------------------------------------------|
E|-----------------------------------------------------------------|

E|-------------------------------9----------------------------------------|
B|----------------------------10---12~---12-14-15-12-14-15-17b19----------|
G|-------------6-7---6-7-9/11------------------------------------16-16-16~|
D|-----------7-----9------------------------------------------------------|
A|---5-7-8-9--------------------------------------------------------------|
E|-7----------------------------------------------------------------------|

E|-------------14-14--------------------------15----------17b19-17-|
B|-15-17-17b19----17b19-19r17p15-17-15--17b19----19r17-15----------|
G|-----------------------------------------------------------------|
D|-----------------------------------------------------------------|
A|-----------------------------------------------------------------|
E|-----------------------------------------------------------------|

E|--19b22-16-----13/14-15--------------------------19--------------|
B|-x---------17------------17b19-17-15-17-17b19--------------------|
G|x---------------------------------------------16-----------------|
D|-----------------------------------------------------------------|
A|-----------------------------------------------------------------|
E|-----------------------------------------------------------------|
 (Rake)            
Submit corrections

↑ Back to top | Tablatures and chords for acoustic guitar and electric guitar, ukulele, drums are parodies/interpretations of the original songs. You may use it for private study, scholarship, research or language learning purposes only