Home » A » Alan Menken »

Alan Menken - A Whole New World Tabs

Artists:  A B C D E F G H I J K L M N O P Q R S T U V W X Y Z # 

A Whole New World Tabs

(ver. 2) Click to play this song!
Alan Menken
e|--2---1/1-0---------1/1-0---0-------1/1-0-------------------------0---1/1-0-----0---1/1-0-------------0/0--|
B|----3-------1-----3-------2---3-3-2-------0-3-1-0-1---0-3/3-1-------3-------1-----3-------1---0-3/3-1------|
G|--------------0-0-----------------------------------2---------0/0-------------0-------------2--------------|
D|-----------------------------------------------------------------------------------------------------------|
A|-----------------------------------------------------------------------------------------------------------|
E|-----------------------------------------------------------------------------------------------------------|

e|--0-1-5-3/3-0-1-5-3---1/1-0-0/0-0-1-3-6-5-3---6-5-3---0-------------0-1-5-3/3-0-1-5-3---1/1-0-0/0-0-1-3-6--|
B|--------------------3-----------------------1-------2---3-1/1---1-3------------3------3--------------------|
G|--------------------------------------------------------------2--------------------------------------------|
D|-----------------------------------------------------------------------------------------------------------|
A|-----------------------------------------------------------------------------------------------------------|
E|-----------------------------------------------------------------------------------------------------------|

e|--5-3---6-8-3---0-------1-0-----------3-1-4/4-----3-1-4/4-3---3-1-1-0-3/3-1-3-1-----------1/1---3/3-3-4-8-|
B|------1-------1---3-1-3-----1-0-1/1/1---------4-------------4-------------------4-3-4-1-3-----4-----------|
G|------------------------------------------------3---------------------------------------------------------|
D|----------------------------------------------------------------------------------------------------------|
A|----------------------------------------------------------------------------------------------------------|
E|----------------------------------------------------------------------------------------------------------|

e|--7/7-3-4-8-7-1-4-3-3-3-4-7-10-8-7---10-8-7---3-1---1-4-3-----1-3-3-3-1-----3-3-3-1---1---3-4-7-10-8-7----|
B|-----------------------------------4--------4-----4-------4-1-----------4-----------4---4--------------4--|
G|--------------------------------------------------------------------------3-------------------------------|
D|----------------------------------------------------------------------------------------------------------|
A|----------------------------------------------------------------------------------------------------------|
E|----------------------------------------------------------------------------------------------------------|

e|--10-11-7-3-1---1-4-3---------3-4-8-7/7-3-4-8-7/7-3-7-8-7-3-4-8-7-----------------------------------------|
B|--------------4-------4-3-4/4---------------------------------------4-3-4/4/4-----------------------------|
G|------------------------------------------------------------------3---------------------------------------|
D|----------------------------------------------------------------------------------------------------------|
A|----------------------------------------------------------------------------------------------------------|
E|----------------------------------------------------------------------------------------------------------|
            
Submit corrections

↑ Back to top | Tablatures and chords for acoustic guitar and electric guitar, ukulele, drums are parodies/interpretations of the original songs. You may use it for private study, scholarship, research or language learning purposes only