» » »

Alan Jackson - Summertime Blues Tabs

Artists:  A B C D E F G H I J K L M N O P Q R S T U V W X Y Z # 

Summertime Blues Tabs

(ver. 3) Click to play this song!
Alan Jackson
 Rating:
4/5 (4 votes)

 Summertime Blues lessons Tabs too difficult? Try these video lessons and learn fast
 
                This is another Quick Tab i through together, Questions please ask.

e|----------------------------------------|
B|----------------------------------------|
G|----------------------------------------|
D|-2h3-3-3-1h3-3-3-0---1------------------|
A|-------------------3---2-1--------------|
E|---------------------------0------------|

e|----------------------------------------|
B|----------------------------------------|
G|----------------------------------------|
D|-1h3-3-2-2h3-3-3-0----------------------|
A|-------------------3-1------------------|
E|-----------------------1----------------|
            
Submit corrections


        Summertime Blues lessons Hard to play? Try these video lessons and learn fast Summertime Blues lessons
        
↑ Back to top | Tablatures and chords for acoustic guitar and electric guitar, ukulele, drums are parodies/interpretations of the original songs. You may use it for private study, scholarship, research or language learning purposes only