» » »

Alan Jackson - Small Town Southern Man Tabs

Artists:  A B C D E F G H I J K L M N O P Q R S T U V W X Y Z # 

Small Town Southern Man Tabs

(ver. 2) Click to play this song!
Alan Jackson
 Rating:
4/5 (4 votes)

 Small Town Southern Man lessons Tabs too difficult? Try these video lessons and learn fast
 
                Alright, to play this like I have it tabbed out you are going to have to tune the Low E 
string down  a half step to Eb. When I play this song  at a bar, I just use the octave 
(6th fret –A string). I'm pretty sure this is 100% though.
E-----------------------------------------------------------------------------------
B-----------------------------------------------------------------------------------
G-----------------------------------------------------------------------------------
D----------3/5\3—1-----------1------1----------------3/5\3---1---------1-----3p1----
A-----------------------3h1------------3p1-------------------------1h3--------------
E-----------------------------------------------0-----------------------------------

E------------------------------------------------------------------------------------
B------------------------------------------------------------------------------------
G------------------------------------------------------------------------------------
D----------3/5\3—1---------1------1----------------3/5\3---1-----3-3/5\3-------------
A--------------------3h1------------3p1----------------------------------------3--1--
E---------------------------------------------0--------------------------------------

E-------------------------------
B-------------------------------
G-------------------------------
D----1--------------------------
A--------3p1--------------------
E------------------0------------

            
Submit corrections


        Small Town Southern Man lessons Hard to play? Try these video lessons and learn fast Small Town Southern Man lessons
        
↑ Back to top | Tablatures and chords for acoustic guitar and electric guitar, ukulele, drums are parodies/interpretations of the original songs. You may use it for private study, scholarship, research or language learning purposes only