» » »

Alan Jackson - It's Five O'clock Somewhere () Tabs

Artists:  A B C D E F G H I J K L M N O P Q R S T U V W X Y Z # 

It's Five O'clock Somewhere () Tabs

(ver. 2) Click to play this song!
Alan Jackson
 Rating:
4/5 (4 votes)

 It's Five O'clock Somewhere () lessons Tabs too difficult? Try these video lessons and learn fast
 
                Intro
Drop D tuning    =     drop low E  to D
-------------------------------------------------
-------------------------------------------------
-------------------------------------------------
---0------------------444---2-0----------0--b4---
------2-0-------------------------/2-------------
-------------0-----------------------------------


-------------------------------------------------------------
-------------------------------------------------------------
------6-6-6-\-4--4-4-4-\-2-----------------------------------
------7-7-7-\-5--5-5-5-\-4---4-------0------0----------------
-----------------------------5---------/5-------2-0----------
------------------------------------------------------b2--0--

		


Verse:  4 BEATS PER MEASURE
		
D    A    D    A    D    A    Bm    A    G    D

A    D    G    D    AAAA-FAST
		
cHORUS:
D    G    A    D    D    G    A    
            
Submit corrections


        It's Five O'clock Somewhere () lessons Hard to play? Try these video lessons and learn fast It's Five O'clock Somewhere () lessons
        
↑ Back to top | Tablatures and chords for acoustic guitar and electric guitar, ukulele, drums are parodies/interpretations of the original songs. You may use it for private study, scholarship, research or language learning purposes only