» » »

Alan Jackson - Another Good Reason Not To Drink Tabs

Artists:  A B C D E F G H I J K L M N O P Q R S T U V W X Y Z # 

Another Good Reason Not To Drink Tabs

(ver. 1) Click to play this song!
Alan Jackson
 Rating:
4.3/5 (24 votes)

 Another Good Reason Not To Drink lessons Tabs too difficult? Try these video lessons and learn fast
 
                                                                                      r     r     r      r   r r r
                                                                       m     m     m      m   m m m
e|----------------------------------------------------------|----------11----10----9------7---6\5-5--|
B|----------------------------------------------------------|----------12----11----10-----9---8\7-7--|
G|---------------------------------------------------4\3\2--|-2--------------------------------------|
D|-------------------------------------2-------------4\3\2--|---3/13----13----12----7/9-----9--------|
A|------------------------------2--2-4---2-4br-2-4/6-4\3\2--|----------------------------------------|
E|-0-2br-2br-0--0-0-0-0-0-0-2-4-----------------------------|----------------------------------------|
   PM           PM____              PM                          PM                          PM


      m                        m   m                 m   m      m   m     m
e|----7----------------------------------------------------|------------------------------7-6-5--------------|
B|-7b---7rp5---5p0-3p0-------------------------------------|------------------4/5-5/6-6/7-7-6-5-3/4-4-3-2--2-|
G|-----------7---------4p2p0---0---2p0---------------------|--------------4---5/6-6/7-7/8-------3/4-4-3-2--2-|
D|---------------------------2---2-----2p0-----------2---2-|----2---2-4/6------------------------------------|
A|-----------------------------------------2p1-0-----------|------4---------x--------------------------------|
E|-----------------------------------------------3/4---4---|4-4----------------------------------------------|
                                                        PM  PM_   PM        PM


      m      m       m                        m r     m           m     m
e|----7------5-------4--------------|-------------------------------------------------|
B|----------------------------------|-----------------------------8-----12------------|
G|-6b---6-4b---4-2/4---2-4p2p0-2p0--|-----------------4-----5-7/9---10b----10r-8-12b--|
D|----------------------------------|-----------2-4/6---5/7---------------------------|
A|----------------------------------|---------2---------------------------------------|
E|----------------------------------|-0-0-2/4-----------------------------------------|
        PM     PM      PM            
Submit corrections


        Another Good Reason Not To Drink lessons Hard to play? Try these video lessons and learn fast Another Good Reason Not To Drink lessons
        
↑ Back to top | Tablatures and chords for acoustic guitar and electric guitar, ukulele, drums are parodies/interpretations of the original songs. You may use it for private study, scholarship, research or language learning purposes only