Home » A » Alabama »

Alabama - Mountain Music Tabs

Artists:  A B C D E F G H I J K L M N O P Q R S T U V W X Y Z # 

Mountain Music Tabs

(ver. 2) Click to play this song!
Alabama
 Rating:
4.4/5 (8 votes)
                [Intro]
e|----------------------------|
B|----------------------------|
G|---2--2-----2---2-----2-----|
D|---------4--------2h4---4---|   x4 times then
A|----------------------------|
E|----------------------------|

e|--------------------------------------------------|
B|---------------------5b7-5--------5---------------|
G|-------2--4b6br4--2------------4h6---6---4b6rb4---2-|
D|--2h4---------------------------------------------|
A|--------------------------------------------------|
E|--------------------------------------------------|

[Chorus]
Oh, [A] play me some mountain [D] music
like [A] grandma and grandpa used to play [D]
Then I'll [A] float on down the riv-[D]er
to a Ca-[E]jun hidea-[A]way.

e|---------------------------|
B|---------------------------|
G|------2---2----4b6--4b6----|
D|--2h4---4---4--------------|
A|---------------------------|
E|---------------------------|

[Verse 1]
[A] Drift away like Tom [D] Sawyer
Ride a raft[A] with ol' Huck [D] Finn
Take a nap[A] like Rip Van Winkle,
daze [G] dreamin' A-[E]gain.

[Chorus 2]
Oh, [A] play me some mountain [D] music
like [A] grandma and grandpa used to play [D]
Then I'll [A] float on down the riv-[D]er
to a Ca-[Bm]jun hidea-[E]way.

e|---------------------------------------------------------------------------12------12------------------|
B|----------------------5--5b7--5--10b12--10-------10h12p10--12b14-12b14p10----12b14====14b2--10h12p10-10|
G|------2-----------4-6-----------------------9h11-------------------------------------------------------|
D|--2h4--4-2-2--4s6--------------------------------------------------------------------------------------|
A|-------------------------------------------------------------------------------------------------------|
E|-------------------------------------------------------------------------------------------------------|

e|------------------------------------------------------------------------------------------|
B|-------10-10h12p10-10--12b14br12-10h12-10--12b14-14b12-10h12p10--------10----10------10---|
G|--9h11----------------------------------------------------------9b11-----11----9b11-------|
D|------------------------------------------------------------------------------------------|
A|------------------------------------------------------------------------------------------|
E|------------------------------------------------------------------------------------------|

e|---------------------------------------------------------------------------|
B|---------------------------------------2-----------------------------------|
G|--9b11br9-------5----5----------------2------------------------------------|
D|----------4b6----6----6b4--2-----4h5-----5p4--2----------------------------|
A|-----------------------------------------------0---------------------------|
E|--------------------------------------------------2------------------------|

Swim across the river
Just to prove that I'm a man
Spend the day bein' lazy
Just bein' nature's friend

Climb a long tall hick'ry
Bend it over, skinnin' cats
Playin' baseball with chert rocks
Usin' sawmill slabs for bats

e|-----------------------------------------------------------------|
B|---------------------------5-5b7-5-------------------------------|
G|------2------------2--4h6----------------------------------------|
D|--2h4---4--2--2--4-----------------------------------------------|
A|-----------------------------------------------------------------|
E|-----------------------------------------------------------------|

Play some [A] back-home come-on [D] music
that [A] comes from the heart [D]
Play [A] something with lots of feel-[D]in'
'cause that's where [Bm] music has to [E] start.

e|---------------------------------------------|
B|---12b14--12---------------------------------|
G|-------------11b13br11--9--------------------|
D|---------------------------------------------|
A|---------------------------------------------|
E|---------------------------------------------|

Oh, [A] play me some mountain [D] music
like [A] grandma and grandpa used to play [D]
Then I'll [A] float on down the riv-[D]er
to a Ca-[Bm]jun hidea-[E]way.            
Submit corrections

↑ Back to top | Tablatures and chords for acoustic guitar and electric guitar, ukulele, drums are parodies/interpretations of the original songs. You may use it for private study, scholarship, research or language learning purposes only