Home » A » Aiza Seguerra »

Aiza Seguerra - Para Lang Sayo Tabs

Artists:  A B C D E F G H I J K L M N O P Q R S T U V W X Y Z # 

Para Lang Sayo Tabs

(ver. 3) Click to play this song!
Aiza Seguerra
 Rating:
3.8/5 (5 votes)
                
Sensya na po Intro pla lng ung nan dito pro lhat ng kanta nag sisimula sa intro kya next 
ung whole song na..... pakinggan nyo lng ung song then sabayan nyo po..... Acoustic po 
ung sabayan nyo

Intro:
e[----------------------------------------------------------------------]
B[-----5--6---------8-8--------8-10-8------8----6--5--------------------]
G[------------------------------------------------------7p-5h-7---9---5-]
D[----------------------------------------------------------------------]
A[----------------------------------------------------------------------]
E[----------------------------------------------------------------------]

e[--------------------8-8--7----5s---8------------------------------]
B[---------8h-10----------------------------------13----------------]
G[------------------------------------------------------------------]
D[------------------------------------------------------------------]
A[------------------------------------------------------------------]
E[------------------------------------------------------------------]

Dedicated po e2 sa aking nag iisang Angel.... At ang nag papatakbo ng mundo ko.. 
Ingatz ka po... ung song maganda diba at para lang sayo... d2 lng po ako sa tabi mo plagi hindi 
kita iiwan promise.... Your Hero

Hi po sa mga classmate ko PROUD TO BE A CAVITE HIGH SCHOOL....
            
Submit corrections

↑ Back to top | Tablatures and chords for acoustic guitar and electric guitar, ukulele, drums are parodies/interpretations of the original songs. You may use it for private study, scholarship, research or language learning purposes only