Home » A » Air Supply »

Air Supply - Lost In Love Tabs

Artists:  A B C D E F G H I J K L M N O P Q R S T U V W X Y Z # 

Lost In Love Tabs

(ver. 2) Click to play this song!
Air Supply
intro
e|----------------------------------------5-------6--------5-------6-------------------|
B|-------6-------8-------6-------8------------6----------------6-----------------------|
G|-----0-----0---------0-----0----------0----------------0-----------------------------|
D|---7-----7---------7-----7----------0-----0----------0-----0-------------------------|
A|-8-----------8---8-----------8-------------------------------------------------------|
E|----------------------------------6-----------6----6-----------6---------------------|

e|-------1-------1--------1-------1----------------------------------------------------|
B|-----------3----------------3-------------6-------8--------6-------6-----------------|
G|-----3----------------3-----------------0-----0----------0-----0---------------------|
D|---0-----0----------0-----0-----------7-----7----------7-----7-----------------------|
A|------------------------------------8-----------8----8-----------8-------------------|
E|-3-----------3----3-----------3------------------------------------------------------|

verse
e|----------------------------------------5-------6--------5-------6-------------------|
B|-------6-------8-------6-------8------------6----------------6-----------------------|
G|-----0-----0---------0-----0----------0----------------0-----------------------------|
D|---7-----7---------7-----7----------0-----0----------0-----0-------------------------|
A|-8-----------8---8-----------8-------------------------------------------------------|
E|----------------------------------6-----------6----6-----------6---------------------|

e|-------1-------1--------1-------1----------------------------------------------------|
B|-----------3----------------3-------------6-------8--------6-------6-----------------|
G|-----3----------------3-----------------0-----0----------0-----0---------------------|
D|---0-----0----------0-----0-----------7-----7----------7-----7-----------------------|
A|------------------------------------8-----------8----8-----------8-------------------|
E|-3-----------3----3-----------3------------------------------------------------------|

e|----------------------------------------5-------6--------5-------6-------------------|
B|-------6-------8-------6-------8------------6----------------6-----------------------|
G|-----0-----0---------0-----0----------0----------------0-----------------------------|
D|---7-----7---------7-----7----------0-----0----------0-----0-------------------------|
A|-8-----------8---8-----------8-------------------------------------------------------|
E|----------------------------------6-----------6----6-----------6---------------------|

e|-------1-------1--------1-------1-----------------------------------------------------|
B|-----------3----------------3-------------6-------8--------6--------------------------|
G|-----3----------------3-----------------0-----0----------0----------------------------|
D|---0-----0----------0-----0-----------7-----7----------7-------------1--3-------------|
A|------------------------------------8-----------8----8----------1--3------------------|
E|-3-----------3----3-----------3-------------------------------------------------------|

refrain
e|--------1-------1--------0-------0--------6--------6--------------------1------------|
B|------------3----------------1----------------6-------------6---------3--------------|
G|------3----------------2----------------0-----------------0---------2----------------|
D|----0-----0----------2-----2----------0-----0-----------7---------0------------------|
A|-------------------0-----------0----------------------8-------8-7--------------------|
E|--3-----------3---------------------6------------6-----------------------------------|

e|--------1--------1-------1--------1-------1--------1-------1------------------------|
B|----3----------------3----------------0----------------0----------------------------|
G|--2------------3----------------3----------------0----------------------------------|
D|------0------0-----0----------0-----0----------3-----3------------------------------|
A|------------------------------------------------------------------------------------|
E|-----------3-----------3----3-----------3----3-----------3--------------------------|

e|--------6-------6--------6-------6-----------------------------------------------|
B|------------6----------------6---------------------------------------------------|
G|------0----------------0---------------------------------------------------------|
D|----0-----0----------0-----0-----------------------------------------------------|
A|---------------------------------------------------------------------------------|
E|--6-----------6----6-----------6-------------------------------------------------|            
Submit corrections

↑ Back to top | Tablatures and chords for acoustic guitar and electric guitar, ukulele, drums are parodies/interpretations of the original songs. You may use it for private study, scholarship, research or language learning purposes only