» » »

Airbourne - Woman Like That Tabs

Artists:  A B C D E F G H I J K L M N O P Q R S T U V W X Y Z # 

Woman Like That Tabs

(ver. 1) Click to play this song!
Airbourne
 Rating:
4.6/5 (21 vote)

 Woman Like That  lessons Tabs too difficult? Try these video lessons and learn fast
 
                Intro

Guitar 1 

--------------------------------------------------------------------------------------------
--------------------------------------------------------------------------------------------
--------------------------------------------------------------------------------------------
--5---------35h3p-------2--------5----------------------------------------------------------
--------------------------------------------------------------------------------------------
--------------------------------------------------------------------------------------------

Guitar 2

--------------------------------------------------------------------------------------------
--8---8---8---8---6---6---6---5---8---8---8---8---8---8---8---8----------------------------
----7---7---7---7---5---5---5---5---7---7---7---7---7---7---7---7---------------------------
--------------------------------------------------------------------------------------------
--------------------------------------------------------------------------------------------
--------------------------------------------------------------------------------------------

Main riff 

(Both Guitars)
--------------------------------------------           ----------------------------     
---------------------------5--5--6--6--5----           --------------------5--3----
---------------------------5--5--5--5--5----  X3       --------------------5--3----
-///---5---5---3---3---5---5--5--5--5--5----  Then     --5---5---3---3--5--3--1----
-///---5---5---3---3---5---3--3--3--3--3----           --5---5---3---3--5----------
-///---3---3---1---1---3--------------------           --3---3---1---1--3----------


Verse

Guitar 1

-----------------------------------------            --------------------------------------
-----------------------------------------            ----------------------5---3-----------
-----------------------5---5---3---35h3p-   X3       ----------------------5---3-----------
---5---5---3---35h3p---------------------   Then     ---5---5---3---3h3p---3---1-----------
-----------------------------------------            --------------------------------------
-----------------------------------------            --------------------------------------


Guitar 2

----------------------------------------            --------------------------------------
----------------------------------------            --------------------------------------
----------------------------------------    X3      -----------------------5---3----------
-----------------------5---5---3--------    Then    -----------------------5---3---------- 
---5---5---3-----------3---3---3--------            ---5---5---3-----------3---1----------
---3---3---3----------------------------            ---3---3---3--------------------------


Chorus

(Both Guitars)
--------------------------------------------           ----------------------------     
---------------------------5--5--6--6--5----           --------------------5--3----
---------------------------5--5--5--5--5----  X5       --------------------5--3----
-///---5---5---3---3---5---5--5--5--5--5----  Then     --5---5---3---3--5--3--1----
-///---5---5---3---3---5---3--3--3--3--3----           --5---5---3---3--5----------
-///---3---3---1---1---3--------------------           --3---3---1---1--3----------




Second Verse is same as first verse

Second Chorus is the same as the first Chorus (Except for Guitar 1's solo at the end) 

During Solo Guitar 2 plays Main

After the solo Guitar 1 plays the verse but Guitar 2 doesn't until the third repeat

Then a chorus and then the outro


Outro

(Both Guitars)

---------------------------------------------------
---------------------------------------------------
---------------------------------------------------  X2
---------------------------5---3---5---3---3---5---  
---5---3---5---3---3---5---3---3---3---3---3---3---
---3---3---3---3---3---3--------------------------- 


Then a Main and then finish

Finish

---------------------------------------------------
---------------------------------------------------
-----------------------5---3-----------------------
---5---5---3---3---5---5---3---5-------------------
---5---5---3---3---5---3---1---5-------------------
---3---3---1---1---3-----------3-------------------            
Submit corrections


        Woman Like That  lessons Hard to play? Try these video lessons and learn fast Woman Like That  lessons
        
↑ Back to top | Tablatures and chords for acoustic guitar and electric guitar, ukulele, drums are parodies/interpretations of the original songs. You may use it for private study, scholarship, research or language learning purposes only