» » »

Airbourne - Its All For Rock N Roll Tabs

Artists:  A B C D E F G H I J K L M N O P Q R S T U V W X Y Z # 

Its All For Rock N Roll Tabs

(ver. 1) Click to play this song!
Airbourne
 Rating:
4.3/5 (12 votes)

 Its All For Rock N Roll  lessons Tabs too difficult? Try these video lessons and learn fast
 
                [Intro]

(0:00)
e|---------------------|---------------------|----------------------|---------------------|
B|---------------------|---------------------|----------------------|---------------------|
G|----------------9~~~~|--9-9-9---------5--5~|--5-5-5---------9-7-9-|--9-9-9---------7--7~|
D|----------------7~~~~|--7-7-7--9-9-9--7--7~|--7-7-7--5-5-5--7-7-7-|--7-7-7--9-9-9--5--5~|
A|---------------------|---------7-7-7-------|---------7-7-7--------|---------7-7-7-------|
E|---------------------|---------------------|----------------------|---------------------|

(0:09)
e|---------------------|
B|---------------------|
G|--7-7-7--------------|
D|--5-5-5--7-7-7-----2~|
A|---------5-5-5-----2~|
E|----------------7\-0~|


[Main Riff]

(0:12)
e|-------------------3~|---------------------|
B|-------------------3~|---------------------|
G|-------------------0~|--2-2-2-----------2--|
D|--2-2-2------------0~|--0-0-0--2-2-2----2--|
A|--0-0-0--2-2-2-----0~|---------0-0-0----0--|
E|---------0-0-0--3--3~|----------------3----|(x2)


(0:22)
e|---------------------|----------------------|---------------------|
B|---------------------|----------------------|---------------------|
G|--9-9-9---------5--5~|--5-5-5---------9-7-9-|--9-9-9---------7--7~|
D|--7-7-7--9-9-9--7--7~|--7-7-7--5-5-5--7-7-7-|--7-7-7--9-9-9--5--5~|
A|---------7-7-7-------|---------7-7-7--------|---------7-7-7-------|
E|---------------------|----------------------|---------------------|

e|---------------------|
B|---------------------|
G|--7-7-7--------------|
D|--5-5-5--7-7-7-----2~|
A|---------5-5-5-----2~|
E|----------------7\-0~|

(0:32)
e|-------------------3~|---------------------|-------------------0-|
B|-------------------3~|---------------------|-------------------0-|
G|-------------------0~|--2-2-2-----------2--|-------------------0-|
D|--2-2-2------------0~|--0-0-0--2-2-2----2--|--2-2-2------------0-|
A|--0-0-0--2-2-2-----0~|---------0-0-0----0--|--0-0-0--2-2-2-----0-|
E|---------0-0-0--3--3~|----------------3----|---------0-0-0--3--3-|            
Submit corrections


        Its All For Rock N Roll  lessons Hard to play? Try these video lessons and learn fast Its All For Rock N Roll  lessons
        
↑ Back to top | Tablatures and chords for acoustic guitar and electric guitar, ukulele, drums are parodies/interpretations of the original songs. You may use it for private study, scholarship, research or language learning purposes only