» » »

Airbag - Surveillance Part 2 Tabs

Artists:  A B C D E F G H I J K L M N O P Q R S T U V W X Y Z # 

Surveillance Part 2 Tabs

(ver. 1) Click to play this song!
Airbag
 Rating:
4.4/5 (11 votes)

 Surveillance Part 2  lessons Tabs too difficult? Try these video lessons and learn fast
 
                INTRO - Atmospheric Sounds
******

-----------------------
PIANO
******
Am Fmaj Em Fmaj X2
Am Fmaj G Fmaj  X2


-----------------------
01:46
VERSE 1
********
    Am           
How far Can I go
Fmaj            Em           Fmaj
  How much do I need to care
                Am
It all seems so out of place
Fmaj             Em    Fmaj
  So distant and cold
           Am                   Fmaj
Is there a cure for all this madness
           G          Fmaj
Is there a way out of here


-----------------------
02:23
CHORUS
*******
Dm       Em                Fmaj  G
  I keep falling down from here
Dm            Em                  Fmaj G
  And I'm not feeling anything at all
Dm             Em                 Fmaj   G
  Does it look good from where you stand
Dm          Em              Fmaj G
  To see me hanging up side down


-----------------------
03:09
BREAK - Acoustic
******
Am Fmaj Em Fmaj X2


03:29
e|---------|
B|-----br--|
G|-5-7-7-5-|
D|---------|
A|---------|
E|---------|


-----------------------
03:30
VERSE 2
********
            Am             
I'm getting stronger every day
F                    Em       Fmaj
  No need for you to be here

e|--p-----s---|
B|-8-5-8-8\10-|
G|------------|
D|------------|
A|------------|
E|------------|
            Am              Fmaj            Em    
The comfort of my tv screen   is all that I need
Fmaj      Am               Fmaj
  But the water is getting cold
       Em                  Fmaj
And my heart it feels like icy stone

e|-------|
B|-------|
G|-5~~~~-|
D|-------|
A|-------|
E|-------|


-----------------------
04:06
CHORUS
*******
Dm           Em               Fmaj   G
  And I keep falling down from here
Dm            Em                  Fmaj G
  But I'm not feeling anything at all
Dm             Em                 Fmaj   G
  Does it look good from where you stand
Dm          Em              Fmaj G
  To see me hanging up side down

04:46
      h         h         h         h         h 
e|---3-5-5-|---3-5-5-|---3-5-5-|---3-5-5-|---3-5-5-|
B|-3-------|-3-------|-3-------|-3-------|-3-------|
G|---------|---------|---------|---------|---------|
D|---------|---------|---------|---------|---------|
A|---------|---------|---------|---------|---------|
E|---------|---------|---------|---------|---------|


-----------------------
04:53
ELEC PICKING - play this picking through the Ebow solo
*************
  Dm            Em            Fmaj          G
e|-------1-----|-------0-----|-------0-----|-------3-----|
B|-----3---3---|---------0---|-----1---1---|-----0---0---|
G|---2-------2-|-----0-----0-|---2-------2-|---0-------0-|
D|-0-----------|---2---------|-3-----------|-------------|
A|-------------|-------------|-------------|-------------|
E|-------------|-0-----------|-------------|-3-----------|X4


04:55
EBOW SOLO - Play Picking with the Ebow solo above
**********
e|-----------------------------------------------|-fade in with vol-*--------|
B|-----------------------------------------------|-*-----------*-------------|
G|-16~~~~~~~~~~-14~~~~~~~~~~~~~-17-16~~~~~~~~~~~-|-7~~~~~~~~~~-7~~~~~~~~~~~~-|
D|-----------------------------------------------|---------------------------|
A|-----------------------------------------------|---------------------------|
E|-----------------------------------------------|---------------------------|

                   
e|------------------------------|--------------------------------------------------------------|
B|-*-------------s--------------|-*-------------*--------------*-------------------------------|
G|-7~~~~~~~~~~~-7\12~~~~~~~~~~~-|-7~~~~~~~~~~~~-7~~~~~~~~~~~~~-7~~~~~~~~~~~~~~~~~~~~~~~~~~~~~~-|
D|------------------------------|--------------------------------------------------------------|
A|------------------------------|--------------------------------------------------------------|
E|------------------------------|--------------------------------------------------------------|


e|--------------------------------------------------------------------------------------|
B|-------s----------------*---------------*--------------------s------------------------|
G|-5~~~-5\7~~~~~~~~~~~~~~-7~~~~~~~~~~~~~~-7~~~~~~~~~~~~~~~~~~-7\12~~~~~~~~~~~~~~~~~~~~~-|
D|--------------------------------------------------------------------------------------|
A|--------------------------------------------------------------------------------------|
E|--------------------------------------------------------------------------------------|


-----------------------
05:36
SOLO 1 - Same picking through the solo Dm Em Fmaj G
*******                  slow                                slow
e|---------------|---p-----b-10~~-|--rbp-------b-----|--rbp-----b-10~~-|--rbp--------------|
B|-10~~~~-13~~~~-|-13-10-13-------|-13--10-13-13~~~~-|-13--10-13-------|-13--10-13-12~~-12-|
G|---------------|----------------|------------------|-----------------|-------------------|
D|---------------|----------------|------------------|-----------------|-------------------|
A|---------------|----------------|------------------|-----------------|-------------------|
E|---------------|----------------|------------------|-----------------|-------------------|


e|---h--p-br--------h---------s-|----slow--------------|
B|-12-13-12-10-10--8-10-10~~~-\-|-----b-----rbp--8~~~~-|
G|------------------------------|-7-9-9~~~~-9--7-------|
D|------------------------------|----------------------|
A|------------------------------|----------------------|
E|------------------------------|----------------------|

05:59               slow               h                      s              s    
e|-------10-----------b-10~~-|-10-12-12-13~~~-13~~~-|-12-13-13\15~~~-15~~~-15\-|
B|----10----10-13-10-13------|----------------------|--------------------------|
G|-12------------------------|----------------------|--------------------------|
D|---------------------------|----------------------|--------------------------|
A|---------------------------|----------------------|--------------------------|
E|---------------------------|----------------------|--------------------------|

    br
e|-12-10-----b---rb--------------------------------------------------------------------------------|
B|-------13-13--13--b-13--rb-----------------------------------------------------------------------|
G|-----------------12----12--10------------------------------------------------------10------------|
D|------------------------------12~~~~~-10---s------brp---------p----s---10----10-12----12-12-12~~-|
A|-----------------------------------------12\10-8-10--8----8-10-8-10\12----12---------------------|
E|-------------------------------------------------------10----------------------------------------|
                                                                                   
                                  slow               p     s                p    b r  b    brp
e|------------------------|---p-----b-----b---|-10-13-10-13\15~~~-15~~~-|-15-13-15---15-|-15--13----------|
B|------------------------|-13-10-13~~~-13~~~-|-------------------------|---------------|--------15~~~~~~-|
G|----12b-12-10-12~~~~~~~-|-------------------|-------------------------|---------------|-----------------|
D|-12-12b-----------------|-------------------|-------------------------|---------------|-----------------|
A|------------------------|-------------------|-------------------------|---------------|-----------------|
E|------------------------|-------------------|-------------------------|---------------|-----------------|            
Submit corrections


        Surveillance Part 2  lessons Hard to play? Try these video lessons and learn fast Surveillance Part 2  lessons
        
↑ Back to top | Tablatures and chords for acoustic guitar and electric guitar, ukulele, drums are parodies/interpretations of the original songs. You may use it for private study, scholarship, research or language learning purposes only