» » »

Airbag - Safe Like You Tabs

Artists:  A B C D E F G H I J K L M N O P Q R S T U V W X Y Z # 

Safe Like You Tabs

(ver. 1) Click to play this song!
Airbag
 Rating:
3.1/5 (27 votes)

 Safe Like You  lessons Tabs too difficult? Try these video lessons and learn fast
 
                INTRO - Keyboards - Em F


-----------------------------------------------
EBOW SOLO 
**********
00:22
e|-----------------------------------------------------------------------------------------------------|
B|----------------------------s--------------s-------------s-----s-----s--------------s--------------s-|
G|-12~~~~~~~~~~~~~~~~~~~~~~~~~\14~~~~~~~~~~~~\12~~~~~~~~~~~\9~~~~\12~~~~\9~~~~~~~~~~~~\7~~~~~~~~~~~~~\-|E
D|-----------------------------------------------------------------------------------------------------|B
A|-----------------------------------------------------------------------------------------------------|O
E|-----------------------------------------------------------------------------------------------------|W
                                                                     VERSE 1
                                                                     Over and over I stumble across
e|-----------------------------------------------------------------------------------------------------|
B|----------------------------s--------------s-----------------------s---------------------------------|
G|-12~~~~~~~~~~~~~~~~~~~~~~~~~\14~~~~~~~~~~~~\12~~~~~~~~~~~~~~~~~~~~~\9~~~~~~~~~~~~~~~~~~~~~~~~~~~~----|E
D|-----------------------------------------------------------------------------------------------------|B
A|-----------------------------------------------------------------------------------------------------|O
E|-----------------------------------------------------------------------------------------------------|W

  The line I drew here on my floor                                   No one knows but I can tell
e|-----------------------------------------------------------------------------------------------|
B|--------------------------------s-----------------------------------s--------------------------|
G|~~~~~~~~~~~~~~~~~~~~~~~~~~~~~~~~\12~~~~~~~~~~~~~~~~~~~~~~~~~~~~~~~~~\9~~~~~~~~~~~~~~~~~~~~~~~~-|E
D|-----------------------------------------------------------------------------------------------|B
A|-----------------------------------------------------------------------------------------------|O
E|-----------------------------------------------------------------------------------------------|W

  That I don't live here anymore
e|------------------------------------------------------------------------------------------------------------|
B|------------------------------s---------------------s--------------s-------------s-----s-----s-----------s--|
G|~~~~~~~~~~~~~~~~~~~~~~~~~~~~~~\12~~~~~~~~~~~~~~~~~~~\14~~~~~~~~~~~~\12~~~~~~~~~~~\9~~~~\12~~~\9~~~~~~~~~~\7-|E
D|------------------------------------------------------------------------------------------------------------|B
A|------------------------------------------------------------------------------------------------------------|O
E|------------------------------------------------------------------------------------------------------------|W


-----------------------------------------------
                                                                     VERSE 2
                                                                     Paralyzed but confident
e|-------------------------------------------------------------------------------------------|
B|--------s-------------------s--------------s-----------------------s-----------------------|
G|-~~~~~~~\12~~~~~~~~~~~~~~~~~\14~~~~~~~~~~~~\12~~~~~~~~~~~~~~~~~~~~~\9~~~~~~~~~~Fade Out...-|E
D|-------------------------------------------------------------------------------------------|B
A|-------------------------------------------------------------------------------------------|O
E|-------------------------------------------------------------------------------------------|W

                          F
I feel the pain inside my head
C
My stomach aches
                                F
When you look at me as if I was fake


-----------------------------------------------
02:15
CHORUS
*******
PICKING - Play this with the CHORUS below
********
  Fmaj7
e|---------|---------|---------|---------|---------|---------|---------|---------|---------|---------|
B|-----1---|-----1---|-----1---|-----1---|-----1---|-----1---|-----1---|-----1---|-----1---|-----1---|
G|---2---2-|---2---2-|---2---2-|---2---2-|---2---2-|---2---2-|---2---2-|---2---2-|---2---2-|---2---2-|
D|-3-------|-3-------|-3-------|-3-------|-3-------|-3-------|-3-------|-3-------|-3-------|-3-------|
A|---------|---------|---------|---------|---------|---------|---------|---------|---------|---------|
E|---------|---------|---------|---------|---------|---------|---------|---------|---------|---------|

  Em                                          Fmaj7
e|----------|----------|----------|----------|---------|---------|---------|---------|
B|-----3----|-----3----|-----3----|-----3----|-----1---|-----1---|-----1---|-----1---|
G|---0---0--|---0---0--|---0---0--|---0---0--|---2---2-|---2---2-|---2---2-|---2---2-|
D|-2--------|-2--------|-2--------|-2--------|-3-------|-3-------|-3-------|-3-------|Repeat this
A|----------|----------|----------|----------|---------|---------|---------|---------|Section for 
E|----------|----------|----------|----------|---------|---------|---------|---------| the desired amount


        F                            Em
I wanna be                 safe like you are
e|---------15~~~~~~~~~~~~~~~~~~~\17~~~~~~~~\15~~~~~~~-|
B|----------------------------------------------------|
G|----------------------------------------------------|E
D|----------------------------------------------------|B
A|----------------------------------------------------|O
E|----------------------------------------------------|W
              F              Em
safe from the strain I feel
e|-------------15~~~~~~~~~~~~~\17~~~~~~~~\15~~~~~~~|
B|-------------------------------------------------|
G|-------------------------------------------------|E
D|-------------------------------------------------|B
A|-------------------------------------------------|O
E|-------------------------------------------------|W
        F                            Em
I wanna be                 safe like you are
e|---------15~~~~~~~~~~~~~~~~~~~\17~~~~~~\15~~~~~~~\12~~~~~~~-|
B|------------------------------------------------------------|
G|------------------------------------------------------------|E
D|------------------------------------------------------------|B
A|------------------------------------------------------------|O
E|------------------------------------------------------------|W
              F
Away from the noise I hear
e|------------15~~~~~~~~~~~~~~~~~~~\17~~~~~~~~-|
B|---------------------------------------------|
G|---------------------------------------------|E
D|---------------------------------------------|B
A|---------------------------------------------|O
E|---------------------------------------------|W


-----------------------------------------------
03:08
EBOW SOLO
**********                                                     
e|------------------------------------------------------------Trill....................-----------------------|
B|-s--------------------s-----s-----s----------s----s-------------h--p-h--p-h--p-h--p----s---s-s--s--s-----s--|
G|-\12~~~~~~~~~~~~~~~~~~\9~~~~\12~~~\9~~~~~~~~~\7~~~\9~~~~~~~-12-9-12-9-12-9-12-9-12-9~~~\2~\4~\5~\4~\2~~~~\9~|E
D|------------------------------------------------------------------------------------------------------------|B
A|------------------------------------------------------------------------------------------------------------|O
E|------------------------------------------------------------------------------------------------------------|W
                             C                                                           F
                   VERSE 2 - Over and over I stumble across   The line I drew here on my floor
e|------------------------------------------------------------------------------------------------------------|
B|-------------s-------s-s--s------------------------------------------------------s----------s---------------|
G|~~~~~~~~~~~~~\7~~~~~~\9\10\9~~~~~~~~~~~~~~~~~~~~~~~~~~~~~~~~~~~~~~~~~~~~~~~~~~~~~\14~~~~~~~~\12~~~~~~~~~~~~-|E
D|------------------------------------------------------------------------------------------------------------|B
A|------------------------------------------------------------------------------------------------------------|O
E|------------------------------------------------------------------------------------------------------------|W
                                  C                                                  F
                                  No one knows but I can tell That I don't live here anymore
e|--------------------------------------------------------------------------------s---------------------------|
B|------------------s-------s-s--s------------------------------------------------\22~~~----------------------|
G|~~~~~~~~~~~~~~~~~~\7~~~~~~\9\10\9~~~~~~~~~~~~~~~~~~~~~~~~~---------------------------------12~~~~~~~~~~~~~--|
D|------------------------------------------------------------------------------------------------------------|
A|------------------------------------------------------------------------------------------------------------|
E|------------------------------------------------------------------------------------------------------------|


-----------------------------------------------
03:54
CHORUS
*******
PICKING - Play this with the CHORUS below
********
  Fmaj7
e|---------|---------|---------|---------|---------|---------|---------|---------|---------|---------|
B|-----1---|-----1---|-----1---|-----1---|-----1---|-----1---|-----1---|-----1---|-----1---|-----1---|
G|---2---2-|---2---2-|---2---2-|---2---2-|---2---2-|---2---2-|---2---2-|---2---2-|---2---2-|---2---2-|
D|-3-------|-3-------|-3-------|-3-------|-3-------|-3-------|-3-------|-3-------|-3-------|-3-------|
A|---------|---------|---------|---------|---------|---------|---------|---------|---------|---------|
E|---------|---------|---------|---------|---------|---------|---------|---------|---------|---------|

  Em                                          Fmaj7
e|----------|----------|----------|----------|---------|---------|---------|---------|
B|-----3----|-----3----|-----3----|-----3----|-----1---|-----1---|-----1---|-----1---|
G|---0---0--|---0---0--|---0---0--|---0---0--|---2---2-|---2---2-|---2---2-|---2---2-|
D|-2--------|-2--------|-2--------|-2--------|-3-------|-3-------|-3-------|-3-------|Repeat this
A|----------|----------|----------|----------|---------|---------|---------|---------|Section for 
E|----------|----------|----------|----------|---------|---------|---------|---------| the desired amount


        F                            Em
I wanna be                 safe like you are
e|---------15~~~~~~~~~~~~~~~~~~~\17~~~~~~~~\15~~~~~~~-|
B|----------------------------------------------------|
G|----------------------------------------------------|E
D|----------------------------------------------------|B
A|----------------------------------------------------|O
E|----------------------------------------------------|W
              F              Em
safe from the strain I feel
e|---------15~~~~~~~~~~~~~~~~~~~\17~~~~~~\15~~~~~~~\12~~~~~~~-|
B|------------------------------------------------------------|
G|------------------------------------------------------------|E
D|------------------------------------------------------------|B
A|------------------------------------------------------------|O
E|------------------------------------------------------------|W
        F                            Em
I wanna be                 safe like you are
e|---------15~~~~~~~~~~~~~~~~~~~\17~~~~~~\15~~~~~~~\12~~~~~~~-|
B|------------------------------------------------------------|
G|------------------------------------------------------------|E
D|------------------------------------------------------------|B
A|------------------------------------------------------------|O
E|------------------------------------------------------------|W
              F
Away from the noise I hear
e|------------15~~~~~~~~~~~~~~~~~~~\17~~~~~~~~\15~~~~~~~-|
B|-------------------------------------------------------|
G|-------------------------------------------------------|E
D|-------------------------------------------------------|B
A|-------------------------------------------------------|O
E|-------------------------------------------------------|W


-----------------------------------------------
04:50
SOLO 1                                            hold
*******                                           bend
e|---------h--p--p------|--h-----|--brp-----|--b--|--|--rb------|
B|-12-12-12-13-12-10-12-|-8-10---|-10--8-10-|-12-12-12-12-10-12-|
G|----------------------|------9-|----------|-------------------|
D|----------------------|--------|----------|-------------------|
A|----------------------|--------|----------|-------------------|
E|----------------------|--------|----------|-------------------|


-----------------------------------------------
05:00
FAST PICKING
*************
e|----|----------|----------|----------|----|----------|----------|----------|\
B|----|-12-------|-12-------|-12-------|----|-12-------|-12-------|-12-------| \ 
G|----|----12----|----12----|----12----|----|----12----|----12----|----12----|  \
D|-14-|-------14-|-------14-|-------14-|-14-|-------14-|-------14-|-------14-|   \
A|----|----------|----------|----------|----|----------|----------|----------|    \
E|----|----------|----------|----------|----|----------|----------|----------|     \
                                                                                    \
                                                                                    /X4
e|----|----------|----------|----------|----|----------|----------|----------|     /
B|----|-13-------|-13-------|-13-------|----|-13-------|-13-------|-15-------|    /
G|----|----14----|----14----|----14----|----|----14----|----14----|----14----|   /
D|-15-|-------15-|-------15-|-------15-|-15-|-------15-|-------15-|-------15-|  /
A|----|----------|----------|----------|----|----------|----------|----------| /
E|----|----------|----------|----------|----|----------|----------|----------|/            
Submit corrections


        Safe Like You  lessons Hard to play? Try these video lessons and learn fast Safe Like You  lessons
        
↑ Back to top | Tablatures and chords for acoustic guitar and electric guitar, ukulele, drums are parodies/interpretations of the original songs. You may use it for private study, scholarship, research or language learning purposes only