Home » A » Aha »

Aha - Take On Me Tabs

Artists:  A B C D E F G H I J K L M N O P Q R S T U V W X Y Z # 

Take On Me Tabs

(ver. 2) Click to play this song!
Aha
[Intro]
e|-0-0-------2-2-2-2-2-3/5-3-3-3-0---0-0-0-0-0-0-0---------------------------|
B|-1---1-----3-------------0-------1-1-1-1-1-1-1-1---------------------------|
G|-2-----2-2-2-------------0---------0-0-0-0-0-0-0---------------------------|
D|-2---------0-------------0---------2-2-2-2-2-2-2---------------------------|
A|-0-----------------------2---------3-3-3-2-2-2-2---------------------------|
E|-------------------------3-------------------------------------------------|

e|-0-0-------2-2-2-2-2-3/5-3-3-3-0---0-0-0-0-0-0-0---------------------------|
B|-1---1-----3-------------0-------1-1-1-1-1-1-1-1---------------------------|
G|-2-----2-2-2-------------0---------0-0-0-0-0-0-0---------------------------|
D|-2---------0-------------0---------2-2-2-2-2-2-2---------------------------|
A|-0-----------------------2---------3-3-3-2-2-2-2---------------------------|
E|-------------------------3-------------------------------------------------|
            
Submit corrections

↑ Back to top | Tablatures and chords for acoustic guitar and electric guitar, ukulele, drums are parodies/interpretations of the original songs. You may use it for private study, scholarship, research or language learning purposes only