Home » A » Agnostic Front »

Agnostic Front - Police State Tabs

Artists:  A B C D E F G H I J K L M N O P Q R S T U V W X Y Z # 

Police State Tabs
Version #1
Agnostic Front


Copy URL
intro

-----------------------------------|
-----------------------------------|
-----------------------------------|
--7--------------7-----------------|
--7--------------7-----------------|
--5--------------5-----------------|

verse 1

-----------------------------------|
-----------------------------------|
-----------------------------------|
--7-7-7-7-10-10-9------------------|
--7-7-7-7-10-10-9------------------|
--5-5-5-5-8--8--7------------------|

verse 2

-----------------------------------|
-----------------------------------|
-----------------------------------|
--9-9-9-9-12-12-7------------------|
--9-9-9-9-12-12-7------------------|
--7-7-7-7-10-10-5------------------|

verse 3

-----------------------------------|
-----------------------------------|
--7-9-9-9-7-9-9-9-7-9-9-9----------|
--7-9-9-9-7-9-9-9-7-9-9-9-7-9------|
--5-7-7-7-5-7-7-7-5-7-7-7-7-9------|
--------------------------5-7------|

solo
-8-
---
---
---
---
---

during the solo

-----------------------------------|
-----------------------------------|
-----------------------10-10-10----|
--7-7-7-10-10-10-9-9-9-10-10-10----|
--7-7-7-10-10-10-9-9-9-8--8--8-----|
--5-5-5-8--8--8--7-7-7-------------|

end

---
---
---
-7-
-7-
-5-            
Submit corrections

↑ Back to top | Tablatures and chords for acoustic guitar and electric guitar, ukulele, drums are parodies/interpretations of the original songs. You may use it for private study, scholarship, research or language learning purposes only