» » »

Agalloch - Kneel To The Cross Tabs

Artists:  A B C D E F G H I J K L M N O P Q R S T U V W X Y Z # 

Kneel To The Cross Tabs

(ver. 1) Click to play this song!
Agalloch
 Rating:
4/5 (4 votes)

 Kneel To The Cross lessons Tabs too difficult? Try these video lessons and learn fast
 
                It's a pretty easy sond to play. The same 3 chords during the Intro and the Main 
part and another 3 for the chorus. Thats all.



Intro:

e||-------------|
B||--0----------|
G||--0----------|
D||--2-2-2-2-2--|
A||--2-2-2-2-2--|
E||--0-0-0-0-0--|   x2

e||-------------|
B||--0----------|
G||--0----------|
D||--0-0-0-0-0--|
A||--2-2-2-2-2--|
E||--3-3-3-3-3--|   x2

e||-------------------------------------------------|
B||--0----------------------0-----------------------|
G||--2----------------------2-----------------------|
D||--0-0-0-0-0--0--0-0-0-0--0--0-0-0-0--0--0-0-0-0--|
A||--2-2-2-2-2--2--2-2-2-2--2--2-2-2-2--2--2-2-2-2--|
E||--2-2-2-2-2--2--2-2-2-2--2--2-2-2-2--2--2-2-2-2--|    x1


Main:
Just keep on playing the intro and sync the lyrics on it like so.


     Give us our bread and...
e||-------------|
B||--0----------|
G||--0----------|
D||--2-2-2-2-2--|
A||--2-2-2-2-2--|
E||--0-0-0-0-0--|   x2

  ...bury our dead
e||-------------|
B||--0----------|
G||--0----------|
D||--0-0-0-0-0--|
A||--2-2-2-2-2--|
E||--3-3-3-3-3--|   x2


 And kneel to the cross on the wall.
e||-------------------------------------------------|
B||--0----------------------0-----------------------|
G||--2----------------------2-----------------------|
D||--0-0-0-0-0--0--0-0-0-0--0--0-0-0-0--0--0-0-0-0--|
A||--2-2-2-2-2--2--2-2-2-2--2--2-2-2-2--2--2-2-2-2--|
E||--2-2-2-2-2--2--2-2-2-2--2--2-2-2-2--2--2-2-2-2--|    x1


*continue on the same pattern with the rest of the lyrics*


Whether burnt at the stake or drunk at the wake
Just kneel to the cross on the wall
We've original sin, but we might just get in
If we beg to the cross on the wall
It's love your neighbours and rattle your sabre
But kneel to that cross on the wall.



Chorus:


               Seeeeee the...
e||--0---------|
B||--0---------|
G||--2-2-2-2-2-|
D||--2-2-2-2-2-|
A||--0-0-0-0-0-|
E||--0---------|    x2


  ...roof fall....
e||--0---------|
B||--0---------|
G||--0-0-0-0-0-|
D||--2-2-2-2-2-|
A||--3-3-3-3-3-|
E||--0---------|    x2


               hear the...
e||--0---------|
B||--0---------|
G||--2-2-2-2-2-|
D||--2-2-2-2-2-|
A||--0-0-0-0-0-|
E||--0---------|    x2


  ...bells crash...
e||--0---------|
B||--0---------|
G||--0-0-0-0-0-|
D||--2-2-2-2-2-|
A||--2-2-2-2-2-|
E||--0---------|    x2



*continue on the same pattern with the rest of the lyrics*



As flesh and bone turns to ash
Tried to conquer the sun with a Christian frost
The corpses' stench beneath the cross


Main part again:

And give them gold and they'll save your soul
And kneel to the cross on the wall
And hail to the boss of the great unwashed
And kneel to the cross on the wall
They wail and weep, the march of the sheep
As they go to the cross on the wall
And it's ever so wrong to dare to be strong
So kneel to the cross on the wall



Chorus part again:

See the roof fall, hear the bells crash
As flesh and bone turns to ash
Tried to conquer the sun, with a Christian frost
The corpses' stench beneath the cross.


Main part again:

And it's ever so wrong to dare, to be strong
And it's ever so wrong to dare, to be strong
But summer is a-coming and arise! Arise!
But summer is a-coming and arise! 

   Arise!
e||-----|
B||--0--|
G||--0--|
D||--2--|
A||--2--|
E||--0--|
            
Submit corrections


        Kneel To The Cross lessons Hard to play? Try these video lessons and learn fast Kneel To The Cross lessons
        
↑ Back to top | Tablatures and chords for acoustic guitar and electric guitar, ukulele, drums are parodies/interpretations of the original songs. You may use it for private study, scholarship, research or language learning purposes only