» » »

After Image - Mangarap Ka Tabs

Artists:  A B C D E F G H I J K L M N O P Q R S T U V W X Y Z # 

Mangarap Ka Tabs

(ver. 3) Click to play this song!
After Image
 Rating:
4.2/5 (5 votes)

 Mangarap Ka lessons Tabs too difficult? Try these video lessons and learn fast
 
                Band:   After Image

Ganda ng song na to, this is for my bands KATCHUPOT ^__^ at ZoomingFool ^__^
At sa lahat ng kabataang ambisyoso, ^__^ MANGARAP KA lng...

Arjo, Mj, Bertos, Moky... Haha, jolina KATCHUPOT pa!
Smiggle, DonCesar, Pau, Amelia, at Joef... ZoomingFool...

Intro.

e|-----------------------------------  \
B|-----------------------------------   \
G|-----------------------------------    \ 6x
D|-----77---------55-----------------    / sa pangatlo dun papasok ung drums at bass
A|---77--4-5----55---4-5-4-----------   /
E|-55---------33---------------------  /


Verse. 
(Sundan mo, sa pangarap ang iyong minimithi, at ito'y iyong dalhin...)

e|------------------------------------------------|
B|------------------------------------------------|
G|------------------------------------------------|
D|-7-777--777777777---55555555555555555-----------|
A|-7-777--777777777---55555555555555555-----------|
E|-5-555--555555555---33333333333333333-----------|



(Itanong mo, at sa puso mo ito ay lalaki, ikaw rin ang aani...)

e|------------------------------------------------|
B|------------------------------------------------|
G|------------------------------------------------|
D|-7-777--777777777---55555555555555555-----------|
A|-7-777--777777777---55555555555555555-----------|
E|-5-555--555555555---33333333333333333-----------|


Refrain.
(Hayaan mong lumipad ang isip sa lawak ng langit...)

e|----------------------------------|
B|----------------------------------|
G|-77777----------------------------|
D|-77777-77777--55555--222222-------|
A|-55555-77777--55555--222222-------|
E|-------55555--33333---------------|


Chorus.

(Mangarap ka, mangarap ka...)

e|------------------------------------------------   \
B|------------------------------------------------    \
G|--------------------7---7--7---7----------------     \ buong chorus
D|-7-7-7-7777--55555--7--7---7--7---7777----------     / e2 lng ang
A|-7-7-7-7777--55555--5-5----5-5----7777----------    /  chords ( "a" lage nag-uumpisa)
E|-5-5-5-5555--33333----------------5555----------   /


Intro ulit

e|-----------------------------------  \
B|-----------------------------------   \
G|-----------------------------------    \ 2x
D|-----77---------55-----------------    / 
A|---77--4-5----55---4-5-4-----------   /
E|-55---------33---------------------  /


Verse.
(Sundan mo, sa pangarap ang iyong minimithi, at ito'y iyong dalhin...)

e|------------------------------------------------|
B|------------------------------------------------|
G|------------------------------------------------|
D|-7-777--777777777---55555555555555555-----------|
A|-7-777--777777777---55555555555555555-----------|
E|-5-555--555555555---33333333333333333-----------|


Refrain.
(Hayaan mong lumipad ang isip sa lawak ng langit...)

e|----------------------------------|
B|----------------------------------|
G|-77777----------------------------|
D|-77777-77777--55555--222222-------|
A|-55555-77777--55555--222222-------|
E|-------55555--33333---------------|


Chorus.  (Mangarap ka, mangarap ka...)

e|------------------------------------------------|
B|------------------------------------------------|
G|-----------------7---7---7---7------------------|
D|-7--7777--55555--7--7---7--7---7777-------------|
A|-7--7777--55555--5-5----5-5----7777-------------|
E|-5--5555--33333----------------5555-------------|


Xenxa na d q p maxado nakapa etong part n to, kinuha q nlng sa pluck
tingin ko ok nmn ung pgkakapluck.
(Naka flat sa part na ito)
Bawat panaginip na taglay ng iyong isip...

e|-5--------3----------5--------5----------------  \
B|-5---7----3---5------5---7----5---5------------   \
G|-5-----7--3-----5----5-----7--5-----5----------    \ 10x
D|-7-7------5-5-----5--7-7------5-5----5---------    /
A|-7--------5----------7--------5----------------   /
E|-5--------3----------5--------3----------------  /


Do the intro part.

e|-----------------------------------  \
B|-----------------------------------   \
G|-----------------------------------    \ 4x
D|-----77---------55-----------------    / sa pangatlo dun ulit papasok ung drums at bass
A|---77--4-5----55---4-5-4-----------   /
E|-55---------33---------------------  /


bale ganito pagkakakapa ko

e|-----------------------------------|   |---------------------------------------|
B|-----------------------------------|   |---------------------------------------|
G|-----------------------------------|3x |---------------------------------=-----|
D|-----77---------55-----------------|   |-4--5--7-----77---------55-4--5--7-----|
A|---77--4-5----55---4-5-4-----------|   |-4--5--7---77--4-5----55---4--5--7-----|
E|-55---------33---------------------|   |-2--3--5-55---------33-----2--3--5-----|


Refrain.
(Hayaan mong lumipad ang isip sa lawak ng langit...)

e|----------------------------------|
B|----------------------------------|
G|-77777----------------------------|
D|-77777-77777--55555--222222-------|
A|-55555-77777--55555--222222-------|
E|-------55555--33333---------------|


Tigil ang lahat, pgkatapos sabay sabay ang bagsakan sa chorus...


Chorus.  (Mangarap ka, mangarap ka...)

e|------------------------------------------------|
B|------------------------------------------------|
G|-----------------7---7---7---7------------------|
D|-7--7777--55555--7--7---7--7---7777-------------|
A|-7--7777--55555--5-5----5-5----7777-------------|
E|-5--5555--33333----------------5555-------------|

Ung solo kinakapa ko palang, mali kc ung kuha ko kya papalitan ko pa...
            
Submit corrections


        Mangarap Ka lessons Hard to play? Try these video lessons and learn fast Mangarap Ka lessons
        
↑ Back to top | Tablatures and chords for acoustic guitar and electric guitar, ukulele, drums are parodies/interpretations of the original songs. You may use it for private study, scholarship, research or language learning purposes only