» » »

After Image - Habang May Buhay Tabs

Artists:  A B C D E F G H I J K L M N O P Q R S T U V W X Y Z # 

Habang May Buhay Tabs

(ver. 3) Click to play this song!
After Image
 Rating:
3/5 (22 votes)

 Habang May Buhay lessons Tabs too difficult? Try these video lessons and learn fast
 
                Tuning:standard
intro
1stpart
e|-0---------0----0-----------0----0-------0----0h2-------0------------------------------|
B|-------2-----2----------0-----0------3-----3--------3-----3----------------------------|
G|-----2---2----------1h2---1--------2--------------2------------------------------------|
D|---2--------------2--------------0-----0------0-------0--------------------------------|
A|-0---------0---------------------------------------------------------------------------|
E|----------------0---0-------0----------------------------------------------------------|
2nd part
e|-0---------0-----0-----------0-----0-------0---0h2--------0----------------------------|
B|-------2-----2-----------0-----0-------3-----3-------3------0--------------------------|
G|-----2---2-----------1h2---1---------2-------------2-----------------------------------|
D|---2---------------2---------------0-----0-----0-------0-------------------------------|
A|-0---------0---------------------------------------------------------------------------|
E|-----------------0-----------0----------------------------0----------------------------|
verse1
e|-0-------------------------------------------------|
B|-------------10--9-------9--9-9h10------7----------|
G|-----6-7-7/9-------9---9-----------11-----9-9-7/9--|
D|---7-----------------9------0-------0-0-0----------|
A|-0-------------------------------------------------|
E|-----------------0-------0-------------------------|

e|-0--------------------------------------------------------9--|
B|-------------10--9-------9--9-9h10-10------10----10--12------|
G|-----6-7-7/9-------9---9----------------11----11--------9----|
D|---7-----------------9------0-------0-0-----0----------------|
A|-0-----------------------------------------------------------|
E|-----------------0-------0------------------------0---0------|
refrain1
e|---------9h10-9-----------------------------------------------------------|
B|------10--------12-12-10--------------------------10-12-12-12-10------10--|
G|----9------------------------------------------11------------------11-----|
D|-----------------------------11-11h12-11----------------------------------|
A|--0------0----------0-----12-------------12--9-----9--------9----9--------|
E|--------------------------------------------------------------------------|

e|-7-----7-----7-----------------------7/10-10-9--9/10-9-9--|
B|---0-----0-----10-10---9--9/10---10-----------------------|
G|-----9-----9---------9---------9--------------------------|
D|--------------------------0----------0----------0---------|
A|----------------------------------------------------------|
E|-0-----0-----0--------------------------------------------|
 verse2
e|-0-------------------------------------------------|
B|-------------10--9-------9--9-9h10------7----------|
G|-----6-7-7/9-------9---9-----------11-----9-9-7/9--|
D|---7-----------------9------0-------0-0-0----------|
A|-0-------------------------------------------------|
E|-----------------0-------0-------------------------|

e|-0--------------------------------------------------------9--|
B|-------------10--9-------9--9-9h10-10------10----10--12------|
G|-----6-7-7/9-------9---9----------------11----11--------9----|
D|---7-----------------9------0-------0-0-----0----------------|
A|-0-----------------------------------------------------------|
E|-----------------0-------0------------------------0---0------|
refrain2
e|---------9h10-9-----------------------------------------------------------|
B|------10--------12-12-10--------------------------10-12-12-12-10------10--|
G|----9------------------------------------------11------------------11-----|
D|-----------------------------11-11h12-11----------------------------------|
A|--0------0----------0-----12-------------12--9-----9--------9----9--------|
E|--------------------------------------------------------------------------|

e|-7-----7---9---10---9-7------7-----7-7-9----10-10/12-12-10\9-9--|
B|---0-----0---0----0-----10---------------0----------------------|
G|-----9---------------------9-----9------------------------------|
D|-------------------------------0-------------0------------------|
A|----------------------------------------------------------------|
E|-0-----0---0--------0-0--0--------------------------------------|

e|---------9----------------------------------------------------------------|
B|------10--------12-12-10--------------------------10-12-12-12-10------10--|
G|----9------------------------------------------11------------------11-----|
D|-----------------------------11-11h12-11----------------------------------|
A|--0------0----------0-----12-------------12--9-----9--------9----9--------|
E|--------------------------------------------------------------------------|

e|-7-----7-----7----------------------0-------|
B|---0-----0-----10-10---9--9/10---10---10----|
G|-----9-----9---------9---------9---------9--|
D|--------------------------0---------0-------|
A|--------------------------------------------|
E|-0-----0-----0------------------------------|
repeat intro 2nd part
part2
verse1
e|--0-------------------------------------9--9h10-9-9h10-9-9--|
B|--------------10-9-------9--9-9h10--------------------------|
G|------6-7-7/9------9---9-----------11-----------------------|
D|----7----------------9------0-------0-0----0------0---------|
A|--0---------------------------------------------------------|
E|-----------------0-------0----------------------------------|

e|--0--------------------------------------9-9h10-9-9h10-9-------|
B|--------------10--9-------9--9-9h10-10---------------------10--|
G|------6-7-7/9-------9---9--------------------------------------|
D|----7-----------------9------0-------0-0---0------0------------|
A|--0------------------------------------------------------------|
E|------------------0-------0------------------------------0-----|
refrain1
e|---------9h10-9-----------------------------------------------------------|
B|------10--------12-12-10--------------------------10-12-12-12-10------10--|
G|----9------------------------------------------11------------------11-----|
D|-----------------------------11-11h12-11----------------------------------|
A|--0------0----------0-----12-------------12--9-----9--------9----9--------|
E|--------------------------------------------------------------------------|

e|-7-----7---9---10---9-7------7-----7-7-9----10-10/12-12-10\9-9--|
B|---0-----0---0----0-----10---------------0----------------------|
G|-----9---------------------9-----9------------------------------|
D|-------------------------------0-------------0------------------|
A|----------------------------------------------------------------|
E|-0-----0---0--------0-0--0--------------------------------------|

e|---------9----------------------------------------------------------------|
B|------10--------12-12-10--------------------------10-12-12-12-10------10--|
G|----9------------------------------------------11------------------11-----|
D|-----------------------------11-11h12-11----------------------------------|
A|--0------0----------0-----12-------------12--9-----9--------9----9--------|
E|--------------------------------------------------------------------------|

e|-7-----7-----7-----------------------|
B|---0-----0-----10-10---9--9/10---10--|
G|-----9-----9---------9---------9-----|
D|--------------------------0----------|
A|-------------------------------------|
E|-0-----0-----0-----------------------|
bridge
e|-------10-10-10-10-9-7------7----7---7-7-7----10-10---9-9---------9----9--|
B|-----7-----------------10----------0---------------------------10---10----|
G|---7----------------------9----9-----------------------------9------------|
D|--------------------------------------------------------------------------|
A|----------------------------------------------------------0-------0----0--|
E|-7------7--------7-7-7--7------0-----0------0--0----0---------------------|

e|-9-------------------------9---------+12------|
B|---12-12-10---10--12----12-----9---------+12--|
G|------------9--------12------9----------------|
D|----------------------------------------------|
A|------------------10-------9------------------|
E|----------------------------------------------|
 last part 2 step higher
e|-------11-9-9-9-7--------------------7-9-9-7-----9-9-----9---11---12---11-9--|
B|-----7-----------------------------9-----------0-------9---9----9----9-------|
G|---8----------------8-8h9-8------8-----------8-------9-----------------------|
D|------------------9---------9--6---6---6---6---------------------------------|
A|---------------------------------------------------9----------9----9----9-9--|
E|-7------7-----7--------------------------------------------------------------|

e|------9-----9-9-9/11---12-12/14-14-12\11--------11-9-9-9-7--------------|
B|-12------------------0------------------------7-------------------------|
G|----9-----9---------------------------------8----------------8-8h9-8----|
D|-----------------------------------------------------------9---------9--|
A|--9---------------------------------------------------------------------|
E|--------0---------------------------------7------------7----------------|

e|-------7-9-9-7-----9--9-----9-----9----------------9/12-12-11-11/12--11-11--|
B|-----9-----------0--------9---9-----12-12---11--12--------------------------|
G|---8-----------8--------9-------9---------9---------------------------------|
D|-6---6---6---6--------------------------------------------------------------|
A|----------------------9-----9-----9-----------------------------------------|
E|-------------------------------------------------0-0----------0-------------|

e|------------7---------------------------------------------------------------|
B|----------7-----------------------------------------------------------------|
G|--------8-------------------------------------------------------------------|
D|------9---------------------------------------------------------------------|
A|----9-----------------------------------------------------------------------|
E|--7-------------------------------------------------------------------------|
            
Submit corrections


        Habang May Buhay lessons Hard to play? Try these video lessons and learn fast Habang May Buhay lessons
        
↑ Back to top | Tablatures and chords for acoustic guitar and electric guitar, ukulele, drums are parodies/interpretations of the original songs. You may use it for private study, scholarship, research or language learning purposes only