Home » A » Afi »

Afi - Sacrifice Theory Tabs

Artists:  A B C D E F G H I J K L M N O P Q R S T U V W X Y Z # 

Sacrifice Theory Tabs

(ver. 1) Click to play this song!
Afi
p.m.: palm mut the stuff under the dots
pick s.: pick slide
this song has a weird rythm but its not had to figure out.

intro:
[-7---7---------7----------]
[-7-----7-------7----------]
[-7-------7-----7----------]
[-9---------9---9---9------]
[-9-----------------9(x8)--]
[-7-----------------7------]

verse 1:
[----------------------------------------------------------------------------------]
[----------------------------------------------------------------------------------]
[-7-----4-----6-------------------------------------4-----6------------------------]
[-9-(x4)5-(x2)7-(x2)-(do that 3 times then do this>)5-(x4)7-(x4)-------------------]
[-9-----5-----7-------------------------------------5-----7------------------------]
[-7-----3-----5-------------------------------------3-----5------------------------]

[----------------------------------------------------------------------------------]
[----------------------------------------------------------------------------------]
[-7-----4-----6-------------------------------------4-----6------------------------]
[-9-(x4)5-(x2)7-(x2)-(do that 3 times then do this>)5-(x4)7-(x4)-------------------]
[-9-----5-----7-------------------------------------5-----7------------------------]
[-7-----3-----5-------------------------------------3-----5------------------------]

chours:
[----------------------------------------------------------------------------------]
[-7-----------------------7--------------------------------------------------------]
[-7-(x2)6-----7-----4-----7-6-----------------------------------3------------------]
[-7-----7-(x2)9-(x4)5-(x4)7-7-(x4)(do that 2 times the do this>)4-(x4)-------------]
[-5-----7-----9-----5-----5-7-----------------------------------4------------------]
[-------5-----7-----3-------5-----------------------------------2------------------]

verse 2:
[----------------------------------------------------------------------------------]
[----------------------------------------------------------------------------------]
[-7-----4-----6-------------------------------------4-----6------------------------]
[-9-(x4)5-(x2)7-(x2)-(do that 3 times then do this>)5-(x4)7-(x4)-------------------]
[-9-----5-----7-------------------------------------5-----7------------------------]
[-7-----3-----5-------------------------------------3-----5------------------------]

palm muted..........................................................................
[----------------------------------------------------------------------------------]
[----------------------------------------------------------------------------------]
[-7-----4-----6-------------------------------------4-----6------------------------]
[-9-(x4)5-(x2)7-(x2)-(do that 3 times then do this>)5-(x4)7-(x4)-------------------]
[-9-----5-----7-------------------------------------5-----7------------------------]
[-7-----3-----5-------------------------------------3-----5------------------------]
p.m...
[----------------------------------------------------------------------------------]
[----------------------------------------------------------------------------------]
[-7-----4-----6-------------------------------------4-----6------------------------]
[-9-(x4)5-(x2)7-(x2)-(do that 3 times then do this>)5-(x4)7-(x4)-------------------]
[-9-----5-----7-------------------------------------5-----7------------------------]
[-7-----3-----5-------------------------------------3-----5------------------------]

bridge:
listen to the palm muting sometimes he isnt muting
p.m........................................
[---------------------------------------------5-----5------------------------------]
[---------------------7-----------------------7-----5------------------------------]
[-7-------7-----4-----7-----6-----7-----4-----7-----6------------------------------]
[-9-(x32)-9-(x4)5-(x4)7-(x4)7-(x4)9-(x4)5-(x4)7-(x4)7-(x4)--pick slide-------------]
[-9-------9-----5-----5-----7-----9-----5-----5-----7------------------------------]
[-7-------7-----3-----------5-----7-----3-----------5------------------------------]
                                p.m.........              do the 2 with you thumb
[--------7-----4-----5-----5-----------------------------3---3---0--3-----5--------]
[--------7-----4-----7-----5-----------------7-----------3---3---0--3-----5--------]
[--------7-----4-----7-----6-----7-----4-----7-----6-----4---2---0--4-(x4)6-(x4)---]
[--------9-(x4)5-(x4)7-(x4)7-(x4)9-(x4)5-(x4)7-(x4)7-(x4)5---0---2--5-----7--------]
[--------9-----5-----5-----7-----9-----5-----5-----7-----5---0---2--5-----7--------]
[--------7-----3-----------5-----7-----3-----------5-----3---2---0--3-----5--------]

i will put the solo up when i figure it out

please respond and rate it thanx, jeff l.

 intro x1
verse1 x1
chorus x1
verse2 x1
chorus x1
bridge x1
chorus x1
            
Submit corrections

↑ Back to top | Tablatures and chords for acoustic guitar and electric guitar, ukulele, drums are parodies/interpretations of the original songs. You may use it for private study, scholarship, research or language learning purposes only