» » »

Afi - Love Like Winter Bass

Artists:  A B C D E F G H I J K L M N O P Q R S T U V W X Y Z # 

Love Like Winter Bass

(ver. 1) Click to play this song!
Afi
 Rating:
4/5 (4 votes)


 Love Like Winter lessons Tabs too difficult? Try these video lessons and learn fast
 
                this is my first bass tab but its a fairly easy song and im surprised no one else has 
it yet. Here it is. Enjoy

Verse 1, Part 1:
Gb|-----------------------19-19-19-19-|
Db|-----------------------------------| x4
Ab|-----------------------------------|
Eb|-----------------------------------|

Verse 1, Part 2:
Gb|------------------------------------------------------------------------|
Db|--5555555555555555555555555555555599999999999999999999999999999999------|
Ab|------------------------------------------------------------------------|
Eb|------------------------------------------------------------------------|

Gb|------------------------------------------------------------------------|
Db|--5555555555555555555555555555555577777777777777777777777777777777------|
Ab|------------------------------------------------------------------------|
Eb|------------------------------------------------------------------------|

Chorus:(Note: The Little slid thingy might not be noticable but im pretty sure thats it.)
Gb|----------------------------------------------------------------------|
Db|--999999995555555577777777-7/9\7--------------------------------------|x4
Ab|----------------------------------------------------------------------|
Eb|----------------------------------------------------------------------|

Interlude:
Gb|----------------------------------------------------------------------|
Db|--99------55------77-------7/9\7--------------------------------------|x2
Ab|----------------------------------------------------------------------|
Eb|----------------------------------------------------------------------|

Verse 2:
Gb|------------------------------------------------------------------------|
Db|--5555555555555555555555555555555599999999999999999999999999999999------|
Ab|------------------------------------------------------------------------|
Eb|------------------------------------------------------------------------|

Gb|------------------------------------------------------------------------|
Db|--5555555555555555555555555555555577777777777777777777777777777777------|
Ab|------------------------------------------------------------------------|
Eb|------------------------------------------------------------------------|

Gb|------------------------------------------------------------------------|
Db|----------------------------------99999999999999999999999999999999------|
Ab|------------------------------------------------------------------------|
Eb|------------------------------------------------------------------------|

Gb|------------------------------------------------------------------------|
Db|--55555555555555555555555555555555--------------------------------------|
Ab|------------------------------------------------------------------------|
Eb|------------------------------------------------------------------------|

Repeat Chorus

Repeat Interlude

Bridge:
Gb|------------------------------------------------------------------------|
Db|------------------------------------------------------------------------|
Ab|-2-2-2-2-2-2-2-2-2-2-2-2-2-2-2-2-2-2-2-2-2-2-2-2-2-2-2-2-2-2-2-2-2-2-2-2|
Eb|------------------------------------------------------------------------|

Repeat Chorus

Repeat Interlude

Outro:
Gb|--------|
Db|--------|
Ab|-2-2-2-2|
Eb|--------|
            
Submit corrections



        Love Like Winter lessons Hard to play? Try these video lessons and learn fast Love Like Winter lessons
        
↑ Back to top | Tablatures and chords for acoustic guitar and electric guitar, ukulele, drums are parodies/interpretations of the original songs. You may use it for private study, scholarship, research or language learning purposes only