» » »

Aerosmith - Lord Of The Thighs Tabs

Artists:  A B C D E F G H I J K L M N O P Q R S T U V W X Y Z # 

Lord Of The Thighs Tabs

(ver. 2) Click to play this song!
Aerosmith
 Rating:
4/5 (4 votes)
                (Solo)
AEROSMITH
LORD OF THE THIGHS

hey...im jes tabbing the solos and the slide parts cuz the other
parts are REAL EASY to play. here yah go...

FIRST:
             (hold bend)
E--8p6----6------8------8--6\5--5
B-------8---6-8b---8-r8----------
G--------------------------------
D--------------------------------
A--------------------------------
E--------------------------------

E--------------------------------------
B--8--8--6--6/-------------------------
G--------------3-3--5---5B--r5---------
D-----------------------------3h5--3h5-
A--------------------------------------
E--------------------------------------
       hold bend   
         ~~~          ~~~~~~~~
E---------------------------------
B------------------6p5--------(5)/
G--3--5-5B--5-r5p3----------------
D---------------------------------
A---------------------------------
E---------------------------------



SECOND:
*w/DELAY
E--------8--------------------
B------8--11-11-----8---------
G--8h9----------8h9-----------
D---------------------10-10---
A-----------------------------
E-----------------------------
 
E--------8---------------------
B------8---11-11-----8-10------
G--8h9-----------8h9-----------
D-------------------------10-10
A------------------------------
E------------------------------

E--------8-10b-------8-------
B------8-----------8---11----
G--8h9---------8h9--------10-
D----------------------------
A----------------------------
E----------------------------
                            delay off
E--------8---------------------------
B------8---11-11--11-11p10p8-11p10p8-
G--8h9-------------------------------
D------------------------------------
A------------------------------------
E------------------------------------
              hold bend
                ~~~~
E---------10-*b10--10-r10p8----11p8---
B-11p10p8-------------------11-----11-
G-------------------------------------
D-------------------------------------
A-------------------------------------
E-------------------------------------

             ~~              ~~~
E--8-11B-*b11--8-11-8-11B--11---(11)/-
B----------------11--------11---(11)/-
G-------------------------------------
D-------------------------------------
A-------------------------------------
E-------------------------------------
                            ~~~
E--15-**18-17-1615**-17-*b17---
B------------------------------
G------------------------------
D------------------------------
A------------------------------
E------------------------------
                  ~~~~~
E-----------------------
B--13-16p15--15-15b-----
G-----------------------
D-----------------------
A-----------------------
E-----------------------
                 hold bend
                     let ring~~~~~~~~~~
E-------------------------------------|
B-------------------------------------|
G----------------------13-------------|
D--12--15p14p12-14-14b----14---r14----|
A-------------------------------------|
E-------------------------------------|

~~LEGEND~~

*w/DELAY= set for QUARTER NOTE
          regeneration (556 ms.)
          w/ONE REPEAT
b= bend 1/2 step
B= bend FULL step
*b=bend 1/2 step(& hold)BEFORE picking
~~= vibrato

**18 17 1615**= ok, this is played 
               EXTREMELY FAST (like
               32nd or 64th notes!).
T would suggest picking the 18 and then sliding your finger past 17 & 16 and
pull-off @ 16(to 15).
------------------------------------

oh yeah...and you want to know the slide parts??

When he says "you got no way to make a man honey...(approx. 1:06) it goes:

   (VERY steady glissando)
E----6-/-8--|
B-----------|
G-----------|
D-----------|
A-----------|
E-----------|

...its also played when he says "im your man child, lord of the thighs...
(approx. 1:52)

and then starting @ about 2:03 it goes:

E--------------------------------------
B--10-/-8---8\7/8----------------------
G--------------------9--\\--4-\\-2\0/2-
D--------------------------------------
A--------------------------------------
E--------------------------------------

E--------------------------------------
B--3-/-10-\-(8)-------------5/10-(10)\-
G---------------9-(9)-\-7-\------------
D--------------------------------------
A--------------------------------------
E--------------------------------------

E-----------------
B--8\7/8----------
G--------9--9\5-\-
D-----------------
A-----------------
E-----------------

   "I am the lord of your thighs"
                                  ~~~~~
E-----------------------------------
B--10-\8--8-----------5-----0-------
G---------------------5-----0----3/5
D---------------------5-----0-------
A-----------------------------------
E-----------------------------------


and then @ 2:41 it goes:
   You musta come here to find it,baby
E--------------------------------------
B--10---\---8--8---8\------------------
G--10---\---8--8---8\---------9-\--/3/5
D--10---\---8--8---8\------------------
A--------------------------------------
E--------------------------------------

and then the outro is just variations of this:

w/*STEREO DELAY and HEAVY REVERB
                     (and slight fdbk.)
E----------------------------
B----------3-----------------
G--3/5\3-------3/5\3/5-/-----
D--3/5\3-------3/5\3/5-/-----
A----------------------------
E----------------------------
           *set delay for EIGHTH NOTE
            REGENERATION (278 ms.) w/
            ONE REPEAT.

...PRESTO! you have solos & slide parts! and im 100% sure the solos and slide
parts are right...except the outro has random notes here and there...jes keep
messin' w/ it....
            
Submit corrections

↑ Back to top | Tablatures and chords for acoustic guitar and electric guitar, ukulele, drums are parodies/interpretations of the original songs. You may use it for private study, scholarship, research or language learning purposes only