» » »

Eat The Rich Tabs - Aerosmith

Artists:  A B C D E F G H I J K L M N O P Q R S T U V W X Y Z # 

Eat The Rich Tabs

(ver. 3) Click to play this song!
4/5 (4 votes)
    Eat The Rich lessons Tabs too difficult? Try these video lessons and learn fast
                Got everything but the solo(s) and some minor fills.
Everything should be right. You'll have to improvise the solos or find a tab for it elsewhere.

e ----------------------------------|
B -------------------------8--8\----|
G -4--4----4--4----4--4----7--7\----|
D -2--2----2--2----2--2----6--6\----|
A -2--2----2--2----2--2----7--7\----|
E -0--0----0--0----0--0-------------| x1

e ------------------------------------|
B ------------------------------------|
G ------------------------------4--4--|
D -----5~-----------------------2--2--|
A -5h7----5-7---------5---------2--2--|
E ------------3~-5/6---6--5--3--0--0--| x4

e --------------------------|
B --------------------------|
G --------------------------|
D --------------------------|
A -------5------------------|
E -0h7-7---7-0h4-4-5h7-7----| x8

e --------------------------------------------------------|
B --------------------------------------------------------|
G --------------------------------------------------------|
D -2----4------5----7-----------2----4------5----7--------|
A -2----4------5----7-----------2----4------5----7--------|
E -0----2------3----5-----------0----2------3----5--------|

e ---------------------------------------------------------|
B ---------------------------------------------------------|
G ---------------------------------------------------------|
D -2----4------5----7------9-9-9-9-9-9-9-9-9-9-9-9-9-9-9-9-|
A -2----4------5----7------9-9-9-9-9-9-9-9-9-9-9-9-9-9-9-9-|
E -0----2------3----5------7-7-7-7-7-7-7-7-7-7-7-7-7-7-7-7-|

e -------------------------------0-|
B -------------------------------0-|
G ---------------------------------|
D -9--7--7/9\7---7--4--------------|
A -7--5----------5--2--------------|
E -------5/7\5---------5--3--0-----| x4

And that's the end of it. Adding the octave part of the last chorus later.


h = Hammer on

p = pull off

b = bend

~ = vibrato

x (number) = The amount of times it should be played.
Submit corrections

↑ Back to top | Tablatures and chords for acoustic guitar and electric guitar, ukulele, drums are parodies/interpretations of the original songs. You may use it for private study, scholarship, research or language learning purposes only