» » »

Adventure Time - Im Just Your Problem Tabs

Artists:  A B C D E F G H I J K L M N O P Q R S T U V W X Y Z # 

Im Just Your Problem Tabs

(ver. 1) Click to play this song!
Adventure Time
 Rating:
4.3/5 (23 votes)

 Im Just Your Problem lessons Tabs too difficult? Try these video lessons and learn fast
 
                Capo on 7th

[Part 1]

e|0---3--0-----0--|----------------|------------3--|0--------------|
B|1---------3-----|0--------1-1-1--|3--1-1----1----|1-1-1-1--------|
G|2---------------|0---------------|2--------------|0--------------|
D|----------------|2---------------|3--------------|---------------|
A|0---------------|2---------------|0--------------|3--------------|
E|----------------|----------------|---------------|---------------|

e|--5-3--0-----0--|----------------|------------3--|0--------------|
B|1---------1-----|0--------1-1-1--|3--1-1----1----|1-1-1-1--------|
G|2---------------|0---------------|2--------------|0--------------|
D|2---------------|2---------------|3--------------|---------------|
A|0---------------|2---------------|0--------------|3--------------|
E|----------------|----------------|---------------|---------------|

e|----7--6---0----|----------------|---------------|0--------------|
B|1---------------|0----------3-1--|3--1-1---------|1-1-1-1--------|
G|2---------------|0---------------|2--------------|0--------------|
D|2---------------|2---------------|3--------------|---------------|
A|0---------------|2---------------|0--------------|3--------------|
E|----------------|----------------|---------------|---------------|

e|----------------|----------------|---------------|---------------|
B|----------------|----------------|---------------|---------------|
G|---------2------|----------------|---------2-----|---------0-----|
D|-----2-------2--|---------2------|-----3------3--|-----2------2--|
A|-0--------------|-----2-------2--|-3-------------|-3-------------|
E|----------------|-0--------------|---------------|---------------|


[Part 2] x2

e|---0-------0----|---0------------|-8-8-7-7-5-5-3-|-0-------------|
B|-3---3-1-3---3-1|-3---------1-1-1|---------------|---------------|
G|---------2------|----------------|---------7---3-|---------0-----|
D|-----2-------2--|---------2------|-----8---------|-----2------2--|
A|-0--------------|-----2-------2--|-8-------------|-3-------------|
E|----------------|-0--------------|---------------|---------------|

e|----------------|----------------|---------------|---------------|
B|----------------|----------------|---------------|---------------|
G|---------2------|----------------|---------2-----|---------0-----|
D|-----2-------2--|---------2------|-----3------3--|-----2------2--|
A|-0--------------|-----2-------2--|-3-------------|-3-------------|
E|----------------|-0--------------|---------------|---------------|            
Submit corrections


        Im Just Your Problem lessons Hard to play? Try these video lessons and learn fast Im Just Your Problem lessons
        
↑ Back to top | Tablatures and chords for acoustic guitar and electric guitar, ukulele, drums are parodies/interpretations of the original songs. You may use it for private study, scholarship, research or language learning purposes only