Home » A » Adrian Von Ziegler »

Adrian Von Ziegler - Cliffs Of Moher Tabs

Artists:  A B C D E F G H I J K L M N O P Q R S T U V W X Y Z # 

Cliffs Of Moher Tabs

(ver. 1) Click to play this song!
Adrian Von Ziegler
 Rating:
2/5 (28 votes)
                Tuning: Standard

e|---------------------------------------------------------------------------|
B|-----------0h1--------------1--0-----------0-------------------------------|
G|--------2-------2-----2-----------0-----0-----0-----0----------------------| x1
D|-----2-------------2-----------------2-----------2-------------------------|
A|--0----------------------3-----3-------------------------------------------|
E|-------------------------------------0-------------------------------------|

e|---------------------------------------------------------------------------|
B|-----------0h1-----------1--0-----------0----------------------------------|
G|--------2-------2-----2--------0-----0-----0-----0-------------------------| x5
D|-----2-------------2--------------2-----------2----------------------------|
A|--0----------------------3--3----------------------------------------------|
E|----------------------------------0----------------------------------------|

e|---------------------------------------------------------------------------|
B|-----------2h3-----------3--2-----------2----------------------------------|
G|--------4-------4-----4--------2-----2-----2-----2-------------------------| x17
D|-----4-------------4--------------4-----------4----------------------------|
A|--2------------------------------------------------------------------------|
E|-------------------------5--5-----2----------------------------------------|

e|---------------------------------------------------------------------------|
B|-----------2h3-----------3--2-----------2----------------------------------|
G|--------4-------4-----4--------2-----2-----2-----2--4----------------------| x1
D|-----4-------------4--------------4-----------4-----4----------------------|
A|--2-------------------------------------------------2----------------------|
E|-------------------------5--5-----2----------------------------------------|            
Submit corrections

↑ Back to top | Tablatures and chords for acoustic guitar and electric guitar, ukulele, drums are parodies/interpretations of the original songs. You may use it for private study, scholarship, research or language learning purposes only