» » »

Adrian Von Ziegler - Circle Of Life Tabs

Artists:  A B C D E F G H I J K L M N O P Q R S T U V W X Y Z # 

Circle Of Life Tabs

(ver. 1) Click to play this song!
Adrian Von Ziegler
 Rating:
4.3/5 (15 votes)

 Circle Of Life  lessons Tabs too difficult? Try these video lessons and learn fast
 
                e|-----------------12----------------------10------------------7-----3-------5------------------|
B|--------------8-----------------------8-------------------5--------------------------1--------|
G|--------0------------------------0--------------------2 --------------------------------------|
D|------------------------------0---------------------2-----------------------------------------|
A|----7------------------------------------------0-----------------------3-------3--------------|
E|-8---------------------3-------------------------------------------1--------------------------|

e|------------------------------|
B|----0-------1--------2---3----|
G|------------------------------|
D|------------------------------|
A|--------3-------3-------------|
E|----1-------------------------|            
Submit corrections


        Circle Of Life  lessons Hard to play? Try these video lessons and learn fast Circle Of Life  lessons
        
↑ Back to top | Tablatures and chords for acoustic guitar and electric guitar, ukulele, drums are parodies/interpretations of the original songs. You may use it for private study, scholarship, research or language learning purposes only