» » »

Adolescents - I Hate Children Bass

Artists:  A B C D E F G H I J K L M N O P Q R S T U V W X Y Z # 

I Hate Children Bass

(ver. 1) Click to play this song!
Adolescents
 Rating:
4/5 (7 votes)
                Band:Adolescents
Album:Adolescents

*=play 8 tmies
#=play 4 times
~=let note ring

Easy song, good band


Intro 4X (...)0:06
G:----------------------------------]
D:-55555-88888-77777----------------]
A:---------------------5---5--------]
E:-----------------------5---5------]

Chorus 2X(...) 0:20   Pre-Verse 
G:------------------][--------------]
D:------------------][--------------]
A:-7*--0*--3**------][-5**----------]
E:------------------][--------------]

Then play the Verse 6X 0:28

Then Chorus 2X then Pre-Verse

Then Verese 6X 0:56

Then Chorus 2X then Pre-Verse

Play Verse 3X 1:22

Outro

G:----------------------------------------]
D:-55555-88888-77777----------------------]
A:--------------------5---5---5---5-------]
E:----------------------5---5---5---5-3~--]

I HATE CHILDREN!

April 22, 2006
            
Submit corrections

↑ Back to top | Tablatures and chords for acoustic guitar and electric guitar, ukulele, drums are parodies/interpretations of the original songs. You may use it for private study, scholarship, research or language learning purposes only