» » »

Adolescents - Creatures Tabs

Artists:  A B C D E F G H I J K L M N O P Q R S T U V W X Y Z # 

Creatures Tabs

(ver. 3) Click to play this song!
Adolescents
 Rating:
4/5 (4 votes)
                Verse 1                        x4
G--------------------------------|
D--------------------------------|
A--------------------------0--3--|
E-3-3-3-3-3-3-3-3-3-3-3-3--------|
   
Chorus
G-------------------------------------------------|
D-------------------------------------------------|
A-5-5-5-5-5-5-5-5-8-8-8-8-8-8-8-8-----------------|
E---------------------------------5-5-5-5-5-5-5-5-|

Verse 2                        x4
G--------------------------------|
D--------------------------------|
A--------------------------0--3--|
E-3-3-3-3-3-3-3-3-3-3-3-3--------|
   
Chorus 
G-------------------------------------------------|
D-------------------------------------------------|
A-5-5-5-5-5-5-5-5-8-8-8-8-8-8-8-8-----------------|
E---------------------------------5-5-5-5-5-5-5-5-|

Bridge                         x4
G-----------------------------5--|
D-5-5-5-5-5-5-5-5-5-5-5-5--7-----|
A--------------------------------|
E--------------------------------|

Verse 3                        x4
G--------------------------------|
D--------------------------------|
A--------------------------0--3--|
E-3-3-3-3-3-3-3-3-3-3-3-3--------|
   
Chorus Variation                                                x5
G---------------------------------------------------------5-5-5-5-|
D---------------------------------7-7-7-7-7-7-7-7-5-5-5-5---------|
A-5-5-5-5-5-5-5-5-8-8-8-8-8-8-8-8---------------------------------|
E-----------------------------------------------------------------|

G---------------------------------------------------------4/5-5-4/5-5-5-----|
D---------------------------------7-7-7-7-7-7-7-7-5-5-5-5----------------7--|
A-5-5-5-5-5-5-5-5-8-8-8-8-8-8-8-8-------------------------------------------|
E---------------------------------------------------------------------------|
            
Submit corrections

↑ Back to top | Tablatures and chords for acoustic guitar and electric guitar, ukulele, drums are parodies/interpretations of the original songs. You may use it for private study, scholarship, research or language learning purposes only